Guitar Tabs
song title    band name

Join Us Today!

Don't strum alone...
be a part of the largest online Christian music community. Browse thousands of guitar tabs and chat w/ musicians like yourself.


It's Free!

This tab has been rated a 5.00 out of 5 for accuracy. (2 votes)Sorry, but you must be logged in to rate this tab.
Click here to log-in, or you can click here to register.
(Registration is free)

All songs owned by corresponding publishing company. If you make copies of any song on this website, be sure to report your usage to CCLI.
Submitted by: GibsonRocker

Skillet: Rebirthing
From: Comatose
Copyright  2006 Atlantic Records

Drop Db Tuning (low to high) Db Ab Db Gb Bb Eb

Im submitting this one because no one can seem to get it perfect...

This is what the Symphony plays...

Eb----------------------------------------------------------------------------
Bb----------------------------------------------------------------------------
Db---14----14h15p14-12-14----17-12--------------------------------------------
Gb------12----------------12--------------------------------------------------
Ab----------------------------------------------------------------------------
Db----------------------------------------------------------------------------

And then an octave higher...

Eb----17----17h18p17-15-17----20-15-------------------------------------------
Bb-------15----------------15-------------------------------------------------
Db----------------------------------------------------------------------------
Gb----------------------------------------------------------------------------
Ab----------------------------------------------------------------------------
Db----------------------------------------------------------------------------

Comments about this tab

GibsonRocker - 2007-02-11

O yea I forgot to add how it goes after the first time you play it. Sorry I did this late at night...

Eb-----------------------------------------------------------------------------
Bb----------------------------13--15-------------------------------------------
Gb---14--14h15p14-12--14--------------14---------------------------------------
Db-----12----------------12----------------------------------------------------
Ab-----------------------------------------------------------------------------
Db-----------------------------------------------------------------------------


doogles - 2007-03-26

This is really good... I've been trying to figure this one out for a while. Do you have any tips on the part on the Gb string 14-15-12-14? When I pick that it sounds too stacatto. Maybe it's a slide? Thanks.


doogles - 2007-03-26

Oh. I see the 'h' and 'p'... what do they mean?


doogles - 2007-03-26

oh yeah. Instead of going up to 17 on the Gb string you could just play the 12 on the Bb string


doogles - 2007-03-26

...13, not 12. Lots of comments, haha. Good job anyway, and thanks


phlip180 - 2007-04-07

'h' is hammer-on and 'p' is pull-off


panhead9119 - 2008-07-10

are you sure this is the intro to rebirthing? are you thinkning of a different song, like comatose?


Add a comment/correction

Complimentary Christian Ringtones
Dadamobile and CGR have teamed up to bring your favorite Christian artists right to your phone. Sign up today and get 10 complementary ringtones!
Tab Country
Did you know CGR has a sister site w/ country guitar tabs? Well we do! Its called Tab Country. It has a great archive with a lot of country tabs.
Rockin Tabs
Are you looking for a site that has rock guitar tabs? Then Rockintabs.com is the place for you. It is a budding site with many rock guitar tabs. Submit your tab today.
Tab Gallery
Tab Gallery has a compilation of christian, rock, and country tabs all in one place. Come visit us.