Guitar Tabs
song title    band name

Join Us Today!

Don't strum alone...
be a part of the largest online Christian music community. Browse thousands of guitar tabs and chat w/ musicians like yourself.


It's Free!

This tab has been rated a 5.00 out of 5 for accuracy. (4 votes)Sorry, but you must be logged in to rate this tab.
Click here to log-in, or you can click here to register.
(Registration is free)

All songs owned by corresponding publishing company. If you make copies of any song on this website, be sure to report your usage to CCLI.
Submitted by: simplycomplex

the other tab was pretty good but just a little off...so i copied a lot of it
and changed what i thought needed to be...if i got it wrong, politely tell me.

x=muted
s=slide

Intro 
E||------------------------------------------------------------------|
B||------------------------------------------------------------------|
G||------------------------------------------------------------------|2x 1st 
D||-----6-----6-----6-----6-----6---------6-----6-----6-----6-----6--|1x 2nd  
A||-4-4---4-4---4-4---4-4---4-4---4---3-3---3-3---3-3---3-3---3-3---3|
E||------------------------------------------------------------------|

then he starts singing 
E|---------------------------------------------------------------------|
B|---------------------------------------------------------------------|
G|---------------------------------------------------------------------|
D|-----6-----6-----6-----6-----6--------6-----6-----6-----6-----6------|
A|-4-4---4-4---4-4---4-4---4-4---4-------------------------------------|
E|----------------------------------4-4---4-4---4-4---4-4---4-4---4----|

E|--------------------------------------------------------------------||
B|--------------------------------------------------------------------||
G|----1-----1-----1-----1-----1---------------------------------------||repeat
D|--------------------------------------6-----6-----6-----6-----6-----||
A|--------------------------------------------------------------------||
E|-2-2---2-2---2-2---2-2---2-2--2----4-4---4-4---4-4---4-4---4-4---4--||
              
                      REPEAT ONCE

Intro (second time)

E||-x-x----------------------x-x--||
B||-x-x----------------------x-x--||
G||-x-x--6-6-6-6----8-8-8-8--x-x--||
D||-x-x--4-6-6-6----8-8-8-8--x-x--||
A||-x-x--4-4-4-4----6-6-6-6--x-x--||
E||-x-x----------------------x-x--||

Chorus
E||----------------------------------------|
B||----------------------------------------|
G||--6-6-6-6--5-5-5-5--4-4-4-4--5-5-5-5----|
D||--6-6-6-6--5-5-5-5--4-4-4-4--5-5-5-5----|
A||--4-4-4-4--3-3-3-3--2-2-2-2--3-3-3-3----| 
E||----------------------------------------|
       
E|----------------------------------------||
B|----------------------------------------||
G|-6-6-6-6--5-5-5-5--8-8-8-8--6-6-6-6---6-||
D|-6-6-6-6--5-5-5-5--8-8-8-8--6-6-6-6---6-||
A|-4-4-4-4--3-3-3-3--6-6-6-6--4-4-4-4---4-||
E|----------------------------------------||

near 1:26 in the song, another guitar does this really quickly
E||------||
B||------||
G||--6s1-||
D||------||
A||------||
E||------||

Intro(second time) x1

then
E||------------------------------------x-x-||
B||------------------------------------x-x-||
G||--6-6-6-6------------8-8-8-8--------x-x-||
D||--6-6-6-6-a lot------8-8-8-8-a lot--x-x-||
A||--4-4-4-4------------6-6-6-6--------x-x-||
E||------------------------------------x-x-||

Chorus x1

Solo
E||------4~-4-4-4---------------------4~-4-4-4---------11~-11-11-11-11-11||
B||-6-------------6---4~--4-4-4---6----------------6---------------------||
G||---6-------------6---------------6----------------6-------------------||
D||----------------------------------------------------------------------||
A||----------------------------------------------------------------------||
E||----------------------------------------------------------------------||

One Guitar
    (not sure how many times each)
E||--------------------||
B||--------------------||
G||---6-6-6-5-5-5------||
D||----6-6-6-6-6-6-----||repeat for awhile
A||--------------------||
E||--------------------||

Another Guitar                             LET RING      
E||-------------------------------------------------||
B||-------------------------------------------------||
G||---6-6-6-6-6-6-6-6----------8-8-8-8-8-8-8-8----6-||
D||---6-6-6-6-6-6-6-6-<-ALOT---8-8-8-8-8-8-8-8----6-||
A||---4-4-4-4-4-4-4-4----------6-6-6-6-6-6-6-6----4-||
E||-------------------------------------------------||


Chorus twice

Intro (second time)


E||----||
A||----||
D||-6--||
G||-6--|| (rings, intro is in background and fades out)
B||-4--||
E||----||

Comments about this tab

oneHEcalled6289 - 2007-01-11

Hey, everything sounds awesome here and it goes well with the song. Awesome tab!Keep up the good work God has entrusted you with!


stellarkartdude - 2007-01-12

Hey dude great tab, after playing it your way i can see that it was way better than my tab


fearnone - 2007-02-14

Dude awesome tab! Can you help me with the Angels In Chorus song?


ElEvEnTy7FaN - 2007-02-24

gr8 tab sounds awesome


burningbushexp - 2008-03-20

Yeah deffinately great tab ... But i changed the intro to five seven instead of four six.... oh if you want a challenge try playing kutless songs there really addicting and fun


Add a comment/correction

Complimentary Christian Ringtones
Dadamobile and CGR have teamed up to bring your favorite Christian artists right to your phone. Sign up today and get 10 complementary ringtones!
Tab Country
Did you know CGR has a sister site w/ country guitar tabs? Well we do! Its called Tab Country. It has a great archive with a lot of country tabs.
Rockin Tabs
Are you looking for a site that has rock guitar tabs? Then Rockintabs.com is the place for you. It is a budding site with many rock guitar tabs. Submit your tab today.
Tab Gallery
Tab Gallery has a compilation of christian, rock, and country tabs all in one place. Come visit us.