Guitar Tabs
song title    band name

Join Us Today!

Don't strum alone...
be a part of the largest online Christian music community. Browse thousands of guitar tabs and chat w/ musicians like yourself.


It's Free!

This tab has been rated a 2.50 out of 5 for accuracy. (2 votes)Sorry, but you must be logged in to rate this tab.
Click here to log-in, or you can click here to register.
(Registration is free)

All songs owned by corresponding publishing company. If you make copies of any song on this website, be sure to report your usage to CCLI.
Submitted by: Draconey.

Song name: The Art of Breaking
Artist name: Thousand Foot Krutch
Album name: The Art of Breaking
This is palm muted just enough to hear the sound. Reapeat this 4-6 times i think.
|-----------------------------------------|
|-----------------------------------------|
|-----------------------------------------|
|-----------------------------------------|
|---44-44-44--22-22-22--22-22-22----7----7|
|---66-66-66--44-44-44--00-00-00-9-7--9-7-|
K now here is the chrous
All the chrods you do and down, up, down, up, down for each power chord
|---------------------------------|
|---------------------------------|
|---------------------------------|
|---------------------------------|
|--4--4--2--4--4--4--4--6--6--0--2|
|--6--6--0--2--6--6--2--4--4--2--4|
End of chrous is next
|---------------------------------|
|---------------------------------|
|---------------------------------|
|--------4------------------------|
|--4--4--2--4--2------------------|
|--6--6-----2--0------------------|
Now u do that another time then you do this! repeat 4-8 times probaly
|------------------4--------------|
|----------------7----------------|
|--------------6------------------|
|---------------------------------|
|---------------------------------|
|---------------------------------|
Here is my favorite part. 
|-----------------------------------|
|-----------------------------------|
|-----------------------------------|
|-----------------------------------|
|---4--2----10-11--44---------------|
|---6--0----8--9---66---------------|
Then the chrous 2 times then your finished!




Comments about this tab

Draconey. - 2007-01-09

Song name: The Art of Breaking
Artist name: Thousand Foot Krutch
Album name: The Art of Breaking
This is palm muted just enough to hear the sound. Reapeat this 4-6 times i think.
|-----------------------------------------|
|-----------------------------------------|
|-----------------------------------------|
|-----------------------------------------|
|---44-44-44--22-22-22--22-22-22----9----9|
|---66-66-66--44-44-44--00-00-00-9-7--9-7-|
K now here is the chrous
All the chrods you do and down, up, down, up, down for each power chord
|----------------------------------|
|----------------------------------|
|----------------------------------|
|----------------------------------|
|--4--4--2--4--4--4--4-0-6--6--0--2|
|--6--6--0--2--6--6--2-2-4--4--2--4|
End of chrous is next
|---------------------------------|
|---------------------------------|
|---------------------------------|
|--------4------------------------|
|--4--4--2--4--2------------------|
|--6--6-----2--0------------------|
Now u do that another time then you do this! repeat 4-8 times probaly
|------------------7--------------|
|----------------4----------------|
|--------------6------------------|
|---------------------------------|
|---------------------------------|
|---------------------------------|
Here is my favorite part.
|-----------------------------------|
|-----------------------------------|
|-----------------------------------|
|-----------------------------------|
|---4--2----6-7----44---------------|
|---6--0----8--9---66---------------|
Then the chrous 2 times then your finished
My keyboard got messed sorry.


Only4givenOnce! - 2007-02-16

Hey bro whats the tuning for the guitar,,Umm I Love This Song so I'll let ya know if the notes you came up with are Right or not when I have the time.pz out!4 now,,
---Mark S. Jr. AKA OnlyForgivenOnce,,,Hey Send Me A Message plz so we can figure this song out faster!!!


Draconey. - 2007-03-24

K the tuning is normal
just tune ur guitar as u would if u were going to play worship music
but then u play like it like me....


Add a comment/correction

Complimentary Christian Ringtones
Dadamobile and CGR have teamed up to bring your favorite Christian artists right to your phone. Sign up today and get 10 complementary ringtones!
Tab Country
Did you know CGR has a sister site w/ country guitar tabs? Well we do! Its called Tab Country. It has a great archive with a lot of country tabs.
Rockin Tabs
Are you looking for a site that has rock guitar tabs? Then Rockintabs.com is the place for you. It is a budding site with many rock guitar tabs. Submit your tab today.
Tab Gallery
Tab Gallery has a compilation of christian, rock, and country tabs all in one place. Come visit us.