Guitar Tabs
song title    band name

Join Us Today!

Don't strum alone...
be a part of the largest online Christian music community. Browse thousands of guitar tabs and chat w/ musicians like yourself.


It's Free!

This tab has not yet been rated for accuracy.Sorry, but you must be logged in to rate this tab.
Click here to log-in, or you can click here to register.
(Registration is free)

All songs owned by corresponding publishing company. If you make copies of any song on this website, be sure to report your usage to CCLI.
Submitted by: +SEAL+

Trademark
By Relient K
From "Two Lefts Dont Make a Right...But Three Do."
Copyright 2003-Gotee Records

Okay, so most of the tabs around here are really close, but I think I have a
much closer one...some of it is borrowed from Trademark tabs that already 
exist, including the solo. It is also the most complete tab out there.

Intro (Broken down into several parts):
Part I
E----------------
B----------------
G----------------
D-5*-3-4--7-7/9-9
A-5*-3-4---------
D-5*-3-4---------
*Natural Harmonic at this fret
Part II
E-------------
B-------------
G-------------
D-4-4--7-7/9-9
A-4-4---------
D-4-4---------
Part III
E--------------------------
B--------------------------
G--------------------------
D-0-0--7-76-6-0-0--7-7/96
A-0-0----------0-0---------
D-0-0----------0-0---------

So put it all together, and it goes like this...
Part I
Part II
Part III 2x
Part II 2x
Part III 2x

And then you do the following:
Part II 2x
Part III 2x
But...you change Part II and Part III slightly, adding in the G string:

Part ii
G-6-6/7-7
D-7-7/9-9

Part iii
G-6-64-4----------6-6/7-7-4
D-7-76-6----------7-7/9-9-6

After that, another riff...
G-----6-----9-----7-----6-----6-6
D-7-7---7-7---7-7---7-7---7-7----
  PM-|  PM-|  PM-|  PM-|  PM-|
D-------9-6-------7-4
A-7-7-7-----5-5-5----
  PM--|     PM---|

Verse
Follow each chord with palm-muting
D-7xxxxxxxx2xxxxxxxxx4xxxxxxxxxxx0xxxxxxxxxxxx
A-7xxxxxxxx2xxxxxxxxx4xxxxxxxxxxx0xxxxxxxxxxxx
D-7xxxxxxxx2xxxxxxxxx4xxxxxxxxxxx0xxxxxxxxxxxx 2x

D-4-4-4--444-777777-000000-222222
A-4-4-4--444-777777-000000-222222
D-4-4-4--444-777777-000000-222222 2x

Pre-Chorus
G-6-------------
D-7---------0000
A-4---------0000
D-4---------0000
 (let ring) PM--|

Chorus
B-10----3-
G-9-----2-
D-7-----0-
A-7-----0-
D-7-----0- 2x
Play with even rhythm

G-----2-----2---2-----2-----2---2-----2-----2---2-----2-----2---2-
D-4-4---4-4---4---3-3---3-3---3---2-2---2-2---2---1-1---1-1---1---
 PM--| PM--| PM  PM--| PM--| PM  PM--| PM--| PM  PM--| PM--| PM
D-0-0-00000-2-2-22222
A-0-0-00000-2-2-22222
D-0-0-00000-2-2-22222

Intro

Verse, except I think now with higher chords...

Chorus

e------------------------------------
B------------------------------------
G--7-6-------4-6-----6-4----4--2---- X4
D-------9-7------6-4------2----------
A------------------------------------
E------------------------------------

Chorus, but no PM on the one part

Solo

There is also some other background stuff in there...but this tab is pretty much 
complete.

Comments about this tab

No comments/corrections found. Add your own

Complimentary Christian Ringtones
Dadamobile and CGR have teamed up to bring your favorite Christian artists right to your phone. Sign up today and get 10 complementary ringtones!
Tab Country
Did you know CGR has a sister site w/ country guitar tabs? Well we do! Its called Tab Country. It has a great archive with a lot of country tabs.
Rockin Tabs
Are you looking for a site that has rock guitar tabs? Then Rockintabs.com is the place for you. It is a budding site with many rock guitar tabs. Submit your tab today.
Tab Gallery
Tab Gallery has a compilation of christian, rock, and country tabs all in one place. Come visit us.