Guitar Tabs
song title    band name

Join Us Today!

Don't strum alone...
be a part of the largest online Christian music community. Browse thousands of guitar tabs and chat w/ musicians like yourself.


It's Free!

This tab has been rated a 4.67 out of 5 for accuracy. (3 votes)Sorry, but you must be logged in to rate this tab.
Click here to log-in, or you can click here to register.
(Registration is free)

All songs owned by corresponding publishing company. If you make copies of any song on this website, be sure to report your usage to CCLI.
Submitted by: christiangtarst

Artist:Thousand Foot Krutch
Album:Set it off
Copywright:2004 Tooth and Nail records
Tabbed By:Christiangtrist

Intro:

Guitar 1: (clean)
|-------------------------------------------------------------------|
|-------------------------------------------------------------------|
|---------7---------------------------------------------------------|
|-----7-------7------------7--------------9-------------------------|
|-5-5---5---5---5----7-------7--------9-------9---------5-----5-----|
|-----------------5-5--5-5-----5--7-7---7---7---7---3-3---3-3---3/5-|x2

during 3rd time Guitar2: (some distortion)
|-------------------------------------------------------------------|
|-------------------------------------------------------------------|
|-------------------------------------------------------------------|
|-------------------------------------------------------------------|
|-------------------------------------------------------------------|
|5-5-5-5-5-5-5-5-5-5-5-5-5-5-5-5-5-5-5-5-5-5-5-5-5-5-5-5-5-5-5-5-5--|
|5-5-5-5-5-5-5-5-5-5-5-5-5-5-5-5-5-5-5-5-5-5-5-5-5-5-5-5-5-5-5-5-5--|
Pm..................................................................

Guitar 1: (full Distortion)
|--------|
|--------|
|--------|
|5-5-----|
|5-5-----|
|3-3-----|

Pre-verse Thing:
|-------------------------------------------------------------------|
|-------------------------------------------------------------------|
|-------------------------------------------------------------------|
|-7-7-5-5-4----7-7-5-5-4----7-7-5-5-4-----7-7-5-5-4-----0-0-4-4-5---|
|-------------------------------------------------------------------|
|-------------------------------------------------------------------|

Guitar 2:
|-------------------------------------------------------------------|
|-------------------------------------------------------------------|
|-7-7-7-7-7-7-7-7---------------------------------------------------|
|-7-7-7-7-7-7-7-7--7-7-7-7-7-7-7-7--9-9-9-9-9-9-9-9—-5-5-5-5-5-5-5-5|
|-5-5-5-5-5-5-5-5--7-7-7-7-7-7-7-7--9-9-9-9-9-9-9-9—-5-5-5-5-5-5-5-5|
|------------------5-5-5-5-5-5-5-5--7-7-7-7-7-7-7-7—-3-3-3-3-3-3-3-3|

Verse:
Guitar 1:
|-------------------------------------------------------------------|
|-------------------------------------------------------------------|
|--7-x-x-7----------------------------------------------------------|
|--7-x-x-7—-7-x-x-7—-9-x-x-9--5-x-x-5-------------------------------|
|--5-x-x-5—-7-x-x-7—-9-x-x-9--5-x-x-5-------------------------------|
|-----------5-x-x-5—-7-x-x-5--3-x-x-3-------------------------------|






Sex,Drugs....
|-------------------------------------------------------------------|
|-------------------------------------------------------------------|
|-7-7-7-7-7-7-7-7---------------------------------------------------|
|-7-7-7-7-7-7-7-7--7-7-7-7-7-7-7-7--9-9-9-9-9-9-9-9—-5-5-5-5-5-5-5-5|
|-5-5-5-5-5-5-5-5--7-7-7-7-7-7-7-7--9-9-9-9-9-9-9-9—-5-5-5-5-5-5-5-5|
|------------------5-5-5-5-5-5-5-5--7-7-7-7-7-7-7-7—-3-3-3-3-3-3-3-3| x2

Chorus:
|-------------------------------------------------------------------|
|-------------------------------------------------------------------|
|--7--7-x-x-7-7-----------------------------------------------------|
|--7--7-x-x-7-7---7--7-x-x-7-7---9--9-x-x-9---5--5-x-x-5-5----------|
|--5--5-x-x-5-5---7--7-x-x-7-7---9--9-x-x-9---5--5-x-x-5-5----------|
|-----------------5--5-x-x-5-5---7--7-x-x-7---5--5-x-x-5-5----------|x2


>Pre-Verse<

|-------------|
|-------------|
|-------------|
|-5--------5--
|-5--------5--|
|-3--------3--|

Bridge Thing:

|-------------------------------------------------------------------|
|-------------------------------------------------------------------|
|-------------------------------------------------------------------|
|-7-7-7-7-7-7-7-7-7-7-7-7-7-7-7-7---5-5-5-4-5-----------------------|
|-------------------------------------------------------------------|
|-------------------------------------------------------------------|x3

|-------------------------------------------------------------------|
|-------------------------------------------------------------------|
|-------------------------------------------------------------------|
|7-7-7-7-7-7-7-7-7-7-7-7-7-7-7-7-7-7-7-7-7-7-7-7-7------------------|
|-------------------------------------------------------------------|
|-------------------------------------------------------------------|

The “Have you ever felt abandoned” part. (only distorted)
|-------------------------------------------------------------------|
|-------------------------------------------------------------------|
|-7-7-7-7-7-7-7-7---------------------------------------------------|
|-7-7-7-7-7-7-7-7--7-7-7-7-7-7-7-7--9-9-9-9-9-9-9-9—-5-5-5-5-5-5-5-5|
|-5-5-5-5-5-5-5-5--7-7-7-7-7-7-7-7--9-9-9-9-9-9-9-9—-5-5-5-5-5-5-5-5|
|------------------5-5-5-5-5-5-5-5--7-7-7-7-7-7-7-7—-3-3-3-3-3-3-3-3| 
x2


>Pre-verse<







Pre-ending:
|-------------------------------------------------------------------|
|-------------------------------------------------------------------|
|--7-x-x-7-7--------------------------------------------------------|
|--7-x-x-7-7—-7-x-x-7-7—-9-x-x-9-9--5-x-x-5-5-----------------------|
|--5-x-x-5-5—-7-x-x-7-7—-9-x-x-9-9--5-x-x-5-5-----------------------|
|-------------5-x-x-5—5--7-x-x-7-7--3-x-x-3-3-----------------------|x2

Ending:
|-------------------------------------------------------------------|
|-------------------------------------------------------------------|
|-------------------------------------------------------------------|
|5-5-5-5-5-5--5-5---------------------------------------------------|
|5-5-5-5-5-5--5-5---------------------------------------------------|
|3-3-3-3-3-3--3-3---------------------------------------------------|

Comments about this tab

christiangtarst - 2007-01-05

Sorry guys the palming 5555....... is on the 5th time around at the begining


SporkV - 2007-09-08

Ummm, What is it tuned in????


RawkFist1 - 2010-01-27

Awesome man but is it in the order you play


Add a comment/correction

Complimentary Christian Ringtones
Dadamobile and CGR have teamed up to bring your favorite Christian artists right to your phone. Sign up today and get 10 complementary ringtones!
Tab Country
Did you know CGR has a sister site w/ country guitar tabs? Well we do! Its called Tab Country. It has a great archive with a lot of country tabs.
Rockin Tabs
Are you looking for a site that has rock guitar tabs? Then Rockintabs.com is the place for you. It is a budding site with many rock guitar tabs. Submit your tab today.
Tab Gallery
Tab Gallery has a compilation of christian, rock, and country tabs all in one place. Come visit us.