Guitar Tabs
song title    band name

Join Us Today!

Don't strum alone...
be a part of the largest online Christian music community. Browse thousands of guitar tabs and chat w/ musicians like yourself.


It's Free!

This tab has been rated a 4.50 out of 5 for accuracy. (2 votes)Sorry, but you must be logged in to rate this tab.
Click here to log-in, or you can click here to register.
(Registration is free)

All songs owned by corresponding publishing company. If you make copies of any song on this website, be sure to report your usage to CCLI.
Submitted by: amliu

Song: Oh! Gravity.
Band: Switchfoot
Album: Oh! Gravity
2006 SONY BMG MUSIC ENTERTAINMENT
Tabbed by: Ambrose Liu

Tuning: Drop D (DADGBe)


INTRO

Noise then...

Guitar 1
e|---------------------------------------------------------------------------------------------------------------------------------|
B|---------------------------------------------------------------------------------------------------------------------------------|
G|---------------------------------------------------------------------------------------------------------------------------------|
D|-7-7-7-7-7-7-7-7-0-0-0-0-0-0-0-0-7-7-7-7-7-7-7-7-0-00-0-0-0-0-0-5-5-5-5-5-5-5-5-0-00-0-0-0-0-0-7-7-7-7-7-7-7-7-0-0-0-0-0-0-0-0-|
A|-7-7-7-7-7-7-7-7-0-0-0-0-0-0-0-0-7-7-7-7-7-7-7-7-0-00-0-0-0-0-0-5-5-5-5-5-5-5-5-0-00-0-0-0-0-0-7-7-7-7-7-7-7-7-0-0-0-0-0-0-0-0-|
D|-7-7-7-7-7-7-7-7-0-00-0-0-0-0-0-7-7-7-7-7-7-7-7-0-00-0-0-0-0-0-5-5-5-5-5-5-5-5-0-00-0-0-0-0-0-7-7-7-7-7-7-7-7-0-0-0-0-0-0-0-0-|

Guitar 2
e|---------------------------------------------------------------------------------------------------------------------------------|
B|---------------------------------------------------------------------------------------------------------------------------------|
G|---------9-9------------------------------9-9----------------------------7-7-----------------------------------------------------|
D|-----11117-7-1111----11119-9-1111----1111-7-7-1111---11119-9-1111----9-9-5-5-9-9-----9-9-7-7-9-9-----11119-9-1111----11119-9-7-7-|
A|-----7-7-7-7-7-7-----7-7-7-7-7-7-----7-7--7-7-7-7----7-7-7-7-7-7-----5-5-5-5-5-5-----5-5-5-5-5-5-----7-7-7-7-7-7-----7-7-7-7-7-7-|
D|-----7-7-7-7-7-7-----7-7-7-7-7-7-----7-7--7-7-7-7----7-7-7-7-7-7-----5-5-5-5-5-5-----5-5-5-5-5-5-----7-7-7-7-7-7-----7-7-7-7-7-7-|



Verse 1

Guitar 1
e|---------------------------------------------------------------------------------------------------------------------------------|
B|---------------------------------------------------------------------------------------------------------------------------------|
G|---------------------------------------------------------------------------------------------------------------------------------|
D|-7-7-----------------------------7-7-----------------------------5-5-----------------------------7-7-------------0-0-------------|
A|-7-7-----------------------------7-7-----------------------------5-5-----------------------------7-7-------------0-0-------------|
D|-7-7-----------------------------7-7-----------------------------5-5-----------------------------7-7-------------0-0-------------| 
 |                                 This one should be just bass
e|---------------------------------------------------------------------------------------------------------------------------------|
B|---------------------------------------------------------------------------------------------------------------------------------|
G|---------------------------------------------------------------------------------------------------------------------------------|
D|/7-7---------------------------0/7-7---------------------------0/5-5-----------------------------7-7-----------------------------|
A|/7-7---------------------------0/7-7---------------------------0/5-5-----------------------------7-7-----------------------------|
D|/7-7---------------------------0/7-7---------------------------0/5-5-----------------------------7-7-------------111111113-3-3-3-| 

Guitar 2
e|---------------------------------------------------------------------------------------------------------------------------------|
B|---------------------------------------------------------------------------------------------------------------------------------|
G|---------------------------------------------------------------------------------------------------------------------------------|
D|---------------------11--9---11-----------------------11--9---11-----------------------------------------------------------------|
A|---------------------7---7---7------------------------7---7---7------------------------------------------------------------------|
D|---------------------------------------------------------------------------------------------------------------------------------|
 |
e|---------------------------------------------------------------------------------------------------------------------------------|
B|---------------------------------------------------------------------------------------------------------------------------------|
G|---------------------------------------------------------------------------------------------------------------------------------|
D|---------------------11--9---11-----------------------11--9---11---------------------9---7---9-----------------------------------|
A|---------------------7---7---7------------------------7---7---7----------------------5---5---5-----------------------------------|
D|---------------------------------------------------------------------------------------------------------------------------------|



Chorus

Guitars 1 and 2
e|---------------------------------------------------------------------------------------------------------------------------------|
B|---------------------------------------------------------------------------------------------------------------------------------|
G|---------------------------------------------------------------------------------------------------------------------------------|
D|-7---7---7---7---0---0---0---0---7---7---7---7---0---0---0---0---7---7---7---7---0---0---0---0---7---7---7---7---0---0---0---0---|
A|-7---7---7---7---0---0---0---0---7---7---7---7---0---0---0---0---7---7---7---7---0---0---0---0---7---7---7---7---0---0---0---0---|
D|-7---7---7---7---0---0---0---0---7---7---7---7---0---0---0---0---7---7---7---7---0---0---0---0---7---7---7---7---0---0---0---0---| 


Guitar 1
e|--------------------------------------------------|
B|--------------------------------------------------|
G|--------------------------------------------------|
D|-7-7-7-7-7-7-7-7-0-0-0-0-0-0-0-0-7-7-7-7-7-7-7-7-0|
A|-7-7-7-7-7-7-7-7-0-0-0-0-0-0-0-0-7-7-7-7-7-7-7-7-0|
D|-7-7-7-7-7-7-7-7-0-00-0-0-0-0-0-7-7-7-7-7-7-7-7-0|
							Piano banging then...
Guitar 2
e|--------------------------------------------------|
B|--------------------------------------------------|
G|---------9-9------------------------------9-9-----|
D|-----11117-7-1111----11119-9-1111----1111-7-7-1111|
A|-----7-7-7-7-7-7-----7-7-7-7-7-7-----7-7--7-7-7-7-|
D|-----7-7-7-7-7-7-----7-7-7-7-7-7-----7-7--7-7-7-7-|



Verse 2

Guitar 1
e|---------------------------------------------------------------------------------------------------------------------------------|
B|---------------------------------------------------------------------------------------------------------------------------------|
G|---------------------------------------------------------------------------------------------------------------------------------|
D|-7-7---------7---0-0---------0---7-7---------7---0-0---------0---5-5---------5---0-0---------0---7-7---------7---111111113-3-3-3-|
A|-7-7---------7---0-0---------0---7-7---------7---0-0---------0---5-5---------5---0-0---------0---7-7---------7---111111113-3-3-3-|
D|-7-7---------7---0-0---------0---7-7---------7---0-0---------0---5-5---------5---0-0---------0---7-7---------7---111111113-3-3-3-|



Chorus

Guitars 1 and 2
e|---------------------------------------------------------------------------------------------------------------------------------|
B|---------------------------------------------------------------------------------------------------------------------------------|
G|---------------------------------------------------------------------------------------------------------------------------------|
D|-7---7---7---7---0---0---0---0---7---7---7---7---0---0---0---0---7---7---7---7---0---0---0---0---7---7---7---7---0---0---0---0---|
A|-7---7---7---7---0---0---0---0---7---7---7---7---0---0---0---0---7---7---7---7---0---0---0---0---7---7---7---7---0---0---0---0---|
D|-7---7---7---7---0---0---0---0---7---7---7---7---0---0---0---0---7---7---7---7---0---0---0---0---7---7---7---7---0---0---0---0---| 
 |
e|---------------------------------------------------------------------------------------------------------------------------------|
B|---------------------------------------------------------------------------------------------------------------------------------|
G|---------------------------------------------------------------------------------------------------------------------------------|
D|-4---4---4---4---0---0---0---0---7---7---7---7---0---0---0---0---7---7---7---7---0---0---0---0---4---4---4---4---0---0---0---0---|
A|-4---4---4---4---0---0---0---0---7---7---7---7---0---0---0---0---7---7---7---7---0---0---0---0---4---4---4---4---0---0---0---0---|
D|-4---4---4---4---0---0---0---0---7---7---7---7---0---0---0---0---7---7---7---7---0---0---0---0---4---4---4---4---0---0---0---0---| 


Guitar 1
e|---------------------------------------------------------------------------------------------------------------------------------|
B|---------------------------------------------------------------------------------------------------------------------------------|
G|---------------------------------------------------------------------------------------------------------------------------------|
D|-7-7-------------0-0-------------7-7-------------0---0---0---0---7-7-------------0-0-------------7-7-------------0---0---0---0---|
A|-7-7-------------0-0-------------7-7-------------0---0---0---0---7-7-------------0-0-------------7-7-------------0---0---0---0---|
D|-7-7-------------0-0-------------7-7-------------0---0---0---0---7-7-------------0-0-------------7-7-------------0---0---0---0---| 

Guitar 2
e|---------------------------------------------------------------------------------------------------------------------------------|
B|---------------------------------------------------------------------------------------------------------------------------------|
G|---------------------------------------------------------------------------------------------------------------------------------|
D|-------6--/--7---------6--/--7---------6--/--7---9---9---9---7---7-------6--/--7-------6--/--7---------6--/--7---7---7---6---4---|
A|-------x-----x---------x-----x---------x-----x---x---x---x---x---x-------x-----x-------x-----x---------x-----x---x---x---x---x---|
D|-------6--/--7---------6--/--7---------6--/--7---9---9---9---7---7-------6--/--7-------6--/--7---------6--/--7---7---7---6---4---|



Chorus

Noise then...

Guitar 2
e|---------------------------------------------12--------------------------------------------------------------12------------------|
B|---------10--------------10--------------10--------------10--------------10--------------10--------------10--------------10------|
G|-12----------12--11----------11--9---------------11----------11--12----------12--11----------11--9---------------11----------11--|
D|---------------------------------------------------------------------------------------------------------------------------------|
A|---------------------------------------------------------------------------------------------------------------------------------|
D|---------------------------------------------------------------------------------------------------------------------------------|


Guitars 1 and 2
e|---------------------------------------------------------------------------------------------------------------------------------|
B|---------------------------------------------------------------------------------------------------------------------------------|
G|---------------------------------------------------------------------------------------------------------------------------------|
D|-4---4---4---4---0---0---0---0---7---7---7---7---0---0---0---0---7---7---7---7---0---0---0---0---4---4---4---4---0---0---0---0---|
A|-4---4---4---4---0---0---0---0---7---7---7---7---0---0---0---0---7---7---7---7---0---0---0---0---4---4---4---4---0---0---0---0---|
D|-4---4---4---4---0---0---0---0---7---7---7---7---0---0---0---0---7---7---7---7---0---0---0---0---4---4---4---4---0---0---0---0---| 

e|---------------------------------------------------------------------------------------------------------------------------------|
B|---------------------------------------------------------------------------------------------------------------------------------|
G|---------------------------------------------------------------------------------------------------------------------------------|
D|-7---7---7---7---0---0---0---0---7---7---7---7---0---0---0---0---7---7---7---7---0---0---0---0---7---7---7---7---0---------------|
A|-7---7---7---7---0---0---0---0---7---7---7---7---0---0---0---0---7---7---7---7---0---0---0---0---7---7---7---7---0---------------|
D|-7---7---7---7---0---0---0---0---7---7---7---7---0---0---0---0---7---7---7---7---0---0---0---0---7---7---7---7---0---------------| 


This is my first tab and I hope you like it.
Please give me feedback on the tab.
Go Switchfoot and God Bless yall!

Comments about this tab

Adam K - 2007-01-05

not bad at all for a first. A little wide ;)


5isakoolnumber - 2007-01-14

its very acurate but hes right its
very ummmmm
deep and wide
mostly the wide


binky351 - 2008-12-02

dude great tab
very acurite
very wide:)


Add a comment/correction

Complimentary Christian Ringtones
Dadamobile and CGR have teamed up to bring your favorite Christian artists right to your phone. Sign up today and get 10 complementary ringtones!
Tab Country
Did you know CGR has a sister site w/ country guitar tabs? Well we do! Its called Tab Country. It has a great archive with a lot of country tabs.
Rockin Tabs
Are you looking for a site that has rock guitar tabs? Then Rockintabs.com is the place for you. It is a budding site with many rock guitar tabs. Submit your tab today.
Tab Gallery
Tab Gallery has a compilation of christian, rock, and country tabs all in one place. Come visit us.