Guitar Tabs
song title    band name

Join Us Today!

Don't strum alone...
be a part of the largest online Christian music community. Browse thousands of guitar tabs and chat w/ musicians like yourself.


It's Free!

This tab has been rated a 3.75 out of 5 for accuracy. (4 votes)Sorry, but you must be logged in to rate this tab.
Click here to log-in, or you can click here to register.
(Registration is free)

All songs owned by corresponding publishing company. If you make copies of any song on this website, be sure to report your usage to CCLI.
Submitted by: RockinfotheRock

Song: Burn Out Bright
Artist: Switchfoot
Album: Oh! Gravity

Manufactured and distributed by Columbia Records

2006 Sony BMG Music Entertainment


Hey Guys!
The album was just recently released so I just decided to tab a song right away.
So I picked "Burn Out Bright" cause it is an awesome song.

Here it goes!

b = Bend strings
h = hold

Opener:

e|--------------------------------------------------|
B|--------------------------------------------------|
G|-11-11-11-11-11-11--9-9---9--9--9--9--9--9-9--7-7-|
D|--x--x--x--x--x--x--x-x---x--x--x--x--x--x-x--x-x-| (x2)
A|--9--9--9--9--9--9--7-7---7--7--7--7--7--7-7--5-5-|
E|--------------------------------------------------|

Verse:

e|-------------|
B|-------------|
G|--7----------|
D|--7--7--9--5-| (x2)
A|--5--7--9--5-|
E|-----5--7--3-|

Chorus (version 1):
e|--------------------------------------|
B|--------------------------------------|
G|--7------------11b-9b-7b--7-----------|
D|--7--7--9--5----x--x--x---7--7--9--5--|
A|--5--7--9--5----9b-7b-5b--5--7--9--5--|
E|-----5--7--3-----------------5--7--3--|

Opener

Verse 

Chorus (Version 1):


Solo(?):
e|----------------------------------------------------------------------------|
B|----------------------------------------------------------------------------|
G|-11-11-11-11-11-12-9--9-9-9-9-9-11-11--14-16-16-16-16-17--14-14-12-12-91111-|
D|--x--x--x--x--x--x-x--x-x-x-x-x--x--x---x--x--x--x--x--x---x--x--x--x-x-x-x-|
A|--9--9--9--9--9-10-7--7-7-7-7-7--9--9--12-14-14-14-14-15--12-12-10-10-7-9-9-|
E|----------------------------------------------------------------------------|

Bridge:

e|-----------|
B|-----------|
G|-----------|
D|--9--5--7--| (x2)
A|--9--5--7--|
E|--7--3--5--|

Chorus (version 2):

e|------------------------------------------------------------------------|
B|------------------------------------------------------------------------|
G|--9----------13b-11b-9b--9-------------------------13b-11b-9b--9--------|
D|--9-9-11-7----x----x--x--9-9-11-7-11-7-11-7-11-7----x---x--x---9-9-11-7-|
A|--7-9-11-7---11b--9b-7b--7-9-11-7-11-7-11-7-11-7---11b--9b-7b--7-9-11-7-|
E|----7--9-5-----------------7--9-5--9-5--9-5--9-5-----------------7--9-5-|

Closer:

e|----------------------------------------------|
B|----------------------------------------------|
G|--13-13-13-13-13--11-11--11-11-11-11-11--9-9--|
D|---x--x--x--x--x---x--x---x--x--x--x--x--x-x--|  (x2)
A|--11-11-11-11-11---9--9---9--9--9--9--9--7-7--|
E|----------------------------------------------|

Comments about this tab

HolyRockJfreak - 2007-01-28

there's one part they repeat in the song that has a wah effect...I'm not sure what the tabs for it are....


GUITAR MASTA - 2007-03-06

holyrockjfreak is right. man i love that part


Naragrath - 2007-03-28

Excellent tab!


aneb524 - 2007-04-05

This is one of my favorite Switchfoot songs. Thanks for the tab, man.


solfortecross2 - 2008-04-04

I think the intro goes something like this:

e-------------------------------------|
b-------------------------------------|
G-11-11-11-1111--9-99--9-9-9-99--7-77-|
D--9--9--9--9-9--x-xx--7-7-7-77--x-xx-|
A----------------7-77------------5-55-|
E-------------------------------------|

Great tab by the way!


solfortecross2 - 2008-04-04

I think the intro goes something like this (It came out wrong):

e-------------------------------------|
b-------------------------------------|
G-11-11-11-1111--9-99--9-9-9-99--7-77-|
D--9--9--9--9-9----x-xx--7-7-7-77--x-xx-|
A--------------------7-77------------5-55-|
E-------------------------------------|

Great tab by the way!


Add a comment/correction

Complimentary Christian Ringtones
Dadamobile and CGR have teamed up to bring your favorite Christian artists right to your phone. Sign up today and get 10 complementary ringtones!
Tab Country
Did you know CGR has a sister site w/ country guitar tabs? Well we do! Its called Tab Country. It has a great archive with a lot of country tabs.
Rockin Tabs
Are you looking for a site that has rock guitar tabs? Then Rockintabs.com is the place for you. It is a budding site with many rock guitar tabs. Submit your tab today.
Tab Gallery
Tab Gallery has a compilation of christian, rock, and country tabs all in one place. Come visit us.