Guitar Tabs
song title    band name

Join Us Today!

Don't strum alone...
be a part of the largest online Christian music community. Browse thousands of guitar tabs and chat w/ musicians like yourself.


It's Free!

This tab has not yet been rated for accuracy.Sorry, but you must be logged in to rate this tab.
Click here to log-in, or you can click here to register.
(Registration is free)

All songs owned by corresponding publishing company. If you make copies of any song on this website, be sure to report your usage to CCLI.
Submitted by: broken sheep

United Live - From God Above
From: United we stand
Copyright  2006 Columbia(?)

I changed the solo a little bit and added a couple of other things

Guitar 1 - Drop half (Eb Ab Db Gb Bb eb)
Guitar 2 - Drop half (Eb Ab Db Gb Bb eb)


Intro
Guitar 1
eb|------------------|    eb|-<7>-<7>-<7>-<5>-|
Bb|-<7>-<7>-<7>-<7>--|X3  Bb|-----------------|

Then...
eb|------------------|    eb|--------9h10---|
Bb|-<7>-<7>-<7>-<7>--|X3  Bb|--9h10---------|  repeat entire thing again

Guitar 2
eb|-------------------------------------------------|
Bb|-------------------------------------------------|
Gb|------7-7--4-4--9-9-------7-7--4-4-4-4-4-4-4-4---|
Db|-4-4--7-7--4-4--9-9--4-4--7-7--4-4-4-4-4-4-4-4---|X2
Ab|-4-4--5-5--2-2--7-7--4-4--5-5--2-2-2-2-2-2-2-2---|
Eb|-2-2-----------------2-2-------------------------|


Verse 1
Play the intro again


Pre-Chorus
eb|--------------------9---------------9----12-10-9------|
Bb|-----------------10---10---------10---10---------10---|
Gb|-9h11p9-(x4)--11---------(X2)--9----------------------|
Db|------------------------------------------------------|
Ab|------------------------------------------------------|
Eb|------------------------------------------------------|

eb|--------------------9-------------|
Bb|-----------------10---10----------|
Gb|-9h11p9-(x4)--11---------(X4)-----|
Db|----------------------------------|
Ab|----------------------------------|
Eb|----------------------------------|


Chorus
Guitar 1 and 2
eb|-----------------------------|
Bb|-----------------------------|
Gb|--2--------7--------(6)--7---|
Db|--2--2--4--7--4--2--(6)--7---|
Ab|--0--2--4--5--4--2--(4)--5---|
Eb|-----0--2-----2--0-----------|


Post Chorus
Play intro but no repeats


Verse 2
Same as Verse 1


Pre-chorus


Chorus X2


Bridge
   Guitar 1
eb|----9~--------------------|
Bb|-12---------10-12-9-------|
Gb|-------9-11---------11~---|
Db|--------------------------|
Ab|--------------------------|
Eb|--------------------------|
  |                          |
  | Guitar 2                 |
eb|--------------------------|
Bb|--------------------------|
Gb|--------------------7~----|
Db|-7~-----------------7~----|
Ab|-7~-----------------5~----|
Eb|-5~-----------------------|

Around 2:02
   Guitar 1
eb|-14-14-14-14-14-14-14-14-|-12-12-12-12-12-12-12-12---|
Bb|-------------------------|---------------------------|
Gb|-------------------------|---------------------------|
Db|-------------------------|---------------------------|
Ab|-------------------------|---------------------------|
Eb|-------------------------|---------------------------|
  |                         |                           |
  | Guitar 2                |                           |X2
eb|-------------------------|---------------------------|
Bb|-------------------------|---------------------------|
Gb|-------------------------|---------------------------|
Db|-7--7--7--7--7--7--7--7--|-7--7--7--7--7--7--7--7----|
Ab|-7--7--7--7--7--7--7--7--|-7--7--7--7--7--7--7--7----|
Eb|-5--5--5--5--5--5--5--5--|-5--5--5--5--5--5--5--5----|


   Guitar 1 & 2
eb|------------------|
Bb|------------------|
Gb|-7~-----6b--7~----| (Figure out the timing)
Db|-7~---------7~----|
Ab|-5~---------5~----|
Eb|------------------|


   Guitar 1
eb|-14-14-14-14-14-14-14-14-|-12-12-12-12-12-12-12-12---|
Bb|-------------------------|---------------------------|
Gb|-------------------------|---------------------------|
Db|-------------------------|---------------------------|
Ab|-------------------------|---------------------------|
Eb|-------------------------|---------------------------|
  |                         |                           |
  | Guitar 2                |                           |X4
eb|-------------------------|---------------------------|
Bb|-------------------------|---------------------------|
Gb|-------------------------|---------------------------|
Db|-7--7--7--7--7--7--7--7--|-7--7--7--7--7--7--7--7----|
Ab|-7--7--7--7--7--7--7--7--|-7--7--7--7--7--7--7--7----|
Eb|-5--5--5--5--5--5--5--5--|-5--5--5--5--5--5--5--5----|
The last time they play it they do a pick slide and some other random stuff


Chorus X2
I think that Guitar 1 just plays a single note instead of the power chords
Its pretty faint so I cant tell what it is.

Outro
Play the intro again.


Thats it. It is not perfect. Please rate. God Bless.

Comments about this tab

No comments/corrections found. Add your own

Complimentary Christian Ringtones
Dadamobile and CGR have teamed up to bring your favorite Christian artists right to your phone. Sign up today and get 10 complementary ringtones!
Tab Country
Did you know CGR has a sister site w/ country guitar tabs? Well we do! Its called Tab Country. It has a great archive with a lot of country tabs.
Rockin Tabs
Are you looking for a site that has rock guitar tabs? Then Rockintabs.com is the place for you. It is a budding site with many rock guitar tabs. Submit your tab today.
Tab Gallery
Tab Gallery has a compilation of christian, rock, and country tabs all in one place. Come visit us.