Guitar Tabs
song title    band name

Join Us Today!

Don't strum alone...
be a part of the largest online Christian music community. Browse thousands of guitar tabs and chat w/ musicians like yourself.


It's Free!

This tab has been rated a 5.00 out of 5 for accuracy. (1 vote)Sorry, but you must be logged in to rate this tab.
Click here to log-in, or you can click here to register.
(Registration is free)

All songs owned by corresponding publishing company. If you make copies of any song on this website, be sure to report your usage to CCLI.
Submitted by: Thirddayrocks21

You are mine
Third Day
Wire
Capos on 2nd Fret, Both Gtrs
Gtr I (D A D G A D)  Mark Lee
Gtr 2(EBGDAE)-Brad Avery
 
I usually tab under LeeAveryRock21, ThirdDayRocks21 on Christianguitar.org
 , well this is the correct version of the song.  
Took so long to figure and its really not that hard, just tune it in 
Open d and See.  Hope you guys enjoy and have a happy easter
LET ME KNOW IF YOU WANT ME TO TAB THE LITTLE SOLO THINGY
justin



Intro and Verses
  Q=95
 4/4
  Gtr I
  E E E E E E E E  E E E E E E   E E E E E E E E  E E E E E E
|-0-------2-----4------4p2-----|---------------0--------------|
|-0-0-------0------0-------0---|-2-------4--------4-----4-----|
|-----2----------------------2-|---0-------0--------0-----0---|
|-0-----0-----0------0---------|-----2-------2--------------2-|
|------------------------------|-0-----0-0------------0-------|
|------------------------------|------------------------------|

                                Play only on intro
  E E E E E E E  E E E E E  E    E E E E E E  E    E
|---------0--------------------|-------5p4p0-----<12>----|
|-3---------3----2-----2p0-----|-0------------5--<12>----|
|-0-0---------0--0-0--------0--|---0---------------------|
|-----0--------------0---------|-0---0-------------------|
|-3-----3--------2-----2-------|-------------------------|
|------------------------------|-------------------------|

After first intro play this after
  E E E  E E E E
|--------0-----0--|----|
|-0--------0------|----|
|---2--------2----|----|
|-0---0-----------|----|
|-----------------|----|


Verse after first Chorus and once and awhile mark plays intro after
  E E E E E E E E E   E E E E E E  E E E
|-------0-----0-----|-------0------0-----|
|-0-------0-----0---|-0-------0----0-0---|
|-6-6-------6-----6-|-4-4-------4------2-|
|-----7-------------|-----5--------0-----|
|-------------------|--------------------|
|-7-----------7-----|-5------------------|





Chorus will strum theses different chords
D, G, C, A
Gtr. 1 
 E  E  E  E    E  E     E       E  E
|-0--2--4--5--|-0--7---|-0-----|-0--5----|
|-0--0--0--0--|-0--0---|-3-----|-0--0----|
|-2--2--2--2--|-6--6---|-0-----|-4--4----|
|-0--0--0--0--|-7--7---|-------|-5--5----|
|-0--0--0--0--|--------|-3-----|---------|
|-------------|-7--7---|-------|-5--5----|

Inerlude thingy
Gtr. 1
  E E E E E E E  E E E E    E E E E E E   E    E
|------------------0-0-0--|------------------|-3----|
|------------------0-0-0--|---------------0--|-3----|
|------------------2-2-2--|-----0-----0---0--|-0----|
|-----0-----0------0-0-0--|---0-----0-----0--|-0----|
|---0-----0--------0------|-3-----2----------|------|
|-4-----5-----4--0--------|---------------5--|-5----|



These are all Brads parts in Standard Tuning


Gtr. 2 Plays this after intro 
 Q  E Q  E E E  Q  E E E E E E  Q  E E E E E E  Q  E E E E Q Q   E Q  E E E Q   E E E E Q
|---------0------2------2p0--------------------------------------------------------------
|-3---------3----3--3---3---3----0--------2------3------3p2------------3-----------------
|----2--------2-------2-------2--2--2-------2-------2---2---2-5----------5---4---4---4p2-
|-0----0---------0------0-------------2-------2-------2-------0---0--------0-0-----0-----
|--------------------------------0------0--------0------0-----------0--------------------
|-------------------------------------------------------------5--------------4-----------

------------------|
-------------3----|
0--2---------2--2-|
---0-------0------|
------------------|
------------------|

Play on the verses
   Gtr II
| Q  Q   Q   Q   Q  Q   Q   Q     Q  Q   Q   Q                 Q  Q  Q  Q
|-------------------------------|------------------------------------------|
|-------------------------------|----5-------5--------------------5-----5--|
|----2-------2------2-------2---|--------2---------------------------2-----|
|-0--------------0--------------|-2----------------------------2-----------|
|--------0--------------0-------|------------------------------------------|
|-------------------------------|------------------------------------------|





 Gtr II
| Q  E Q  E Q     Q  E Q   E Q        Q Q E E Q  Q
|----3----3-----|----3-----3----|----^0-----------------|
|-3----3----3---|-3----3-----3--|----^3-----------------|
|-5-------------|-4-------------|----^2-2---2----2------|
|-5-------------|-5-------------|----^0---0-4h5--4------|
|---------------|---------------|-----------------------|

   
Interlude            ~
|   E E E E E E Q  Q Q Q E E E E E E E  H
||-------------------0-0-------------------||---|
||o------------------3-3------------------o||---|
||-------------------2-2-------0-----0--0--||---|
||------0-----0----0-0-0-0---0-----0----0--||---|
||o---0-----0--------------3-----2------x-o||---|
||--2-----3-----2-----------------------3--||---|

Comments about this tab

No comments/corrections found. Add your own

Complimentary Christian Ringtones
Dadamobile and CGR have teamed up to bring your favorite Christian artists right to your phone. Sign up today and get 10 complementary ringtones!
Tab Country
Did you know CGR has a sister site w/ country guitar tabs? Well we do! Its called Tab Country. It has a great archive with a lot of country tabs.
Rockin Tabs
Are you looking for a site that has rock guitar tabs? Then Rockintabs.com is the place for you. It is a budding site with many rock guitar tabs. Submit your tab today.
Tab Gallery
Tab Gallery has a compilation of christian, rock, and country tabs all in one place. Come visit us.