Guitar Tabs
song title    band name

Join Us Today!

Don't strum alone...
be a part of the largest online Christian music community. Browse thousands of guitar tabs and chat w/ musicians like yourself.


It's Free!

This tab has been rated a 1.00 out of 5 for accuracy. (2 votes)Sorry, but you must be logged in to rate this tab.
Click here to log-in, or you can click here to register.
(Registration is free)

All songs owned by corresponding publishing company. If you make copies of any song on this website, be sure to report your usage to CCLI.
Submitted by: sac346

Tuning Drop C: (CGCFAD)

Intro/Verse:
D[-----------------------------------------------------------------]
A[-----------------------------------------------------------------]
F[-----------------------------------------------------------------]
C[-----4-----4---4-----4-----4---4-----6-----6---6-----6-----8-6-4-](5X)
G[-2-2---2-2---2-------------------4-4---4-4---4---4-4---4-4-------]
C[-----------------4-4---4-4---4-----------------------------------]

Chorus:
D[-----------------------------------------------------------------]
A[-----------------------------------------------------------------]
F[--------------------4-4-4-3333-------------------6-6-6-6-6-6-6-6-]
C[-6-6-6-8888-6-6-88--4-4-4-------4-4-4-4-4-4-4-4--6-6-6-6-6-6-6-6-](2X)
G[-6-6-6------6-6-----2-2-2-------4-4-4-4-4-4-4-4--4-4-4-4-4-4-4-4-]
C[-6-6-6------6-6-----------------4-4-4-4-4-4-4-4------------------]

Verse 2:
D[-----------------------------------------------------------------]
A[-----------------------------------------------------------------]
F[-----------------------------------------------------------------]
C[-----4-----4---4-----4-----4---4-----6-----6---6-----6-----8-6-4-](5X)
G[-2-2---2-2---2-------------------4-4---4-4---4---4-4---4-4-------]
C[-----------------4-4---4-4---4-----------------------------------]

Chorus 2:
D[-----------------------------------------------------------------]
A[-----------------------------------------------------------------]
F[--------------------4-4-4-3333-------------------6-6-6-6-6-6-6-6-]
C[-6-6-6-8888-6-6-88--4-4-4-------4-4-4-4-4-4-4-4--6-6-6-6-6-6-6-6-](4X)
G[-6-6-6------6-6-----2-2-2-------4-4-4-4-4-4-4-4--4-4-4-4-4-4-4-4-]
C[-6-6-6------6-6-----------------4-4-4-4-4-4-4-4------------------]

Bridge:
D[---------------------------------------------------------------------]
A[---------------------------------------------------------------------]
F[---------------------------------------------------------------------]
C[-1-1-1-1-1-1-1-1--4-4-4-4-4-4-4-4--111110101010-11111010101010101010-]
G[-1-1-1-1-1-1-1-1--4-4-4-4-4-4-4-4--111110101010-11111010101010101010-]
C[-1-1-1-1-1-1-1-1--4-4-4-4-4-4-4-4--111110101010-11111010101010101010-]

D[-----------------------------------]
A[-----------------------------------]
F[-----------------------------------]
C[-111110101010-11111010101010101010-]
G[-111110101010-11111010101010101010-]
C[-111110101010-11111010101010101010-]

D[---------------------------------------------------------------------]
A[---------------------------------------------------------------------]
F[---------------------------------------------------------------------]
C[-1-1-1-1-1-1-1-1--4-4-4-4-4-4-4-4--111110101010-11111010101010101010-]
G[-1-1-1-1-1-1-1-1--4-4-4-4-4-4-4-4--111110101010-11111010101010101010-]
C[-1-1-1-1-1-1-1-1--4-4-4-4-4-4-4-4--111110101010-11111010101010101010-]

D[-----------------------------------]
A[-----------------------------------]
F[-----------------------------------]
C[-111110101010-11111010101010101010-]
G[-111110101010-11111010101010101010-]
C[-111110101010-11111010101010101010-]

D[---------------------------------------------------------------------]
A[---------------------------------------------------------------------]
F[---------------------------------------------------------------------]
C[-1-1-1-1-1-1-1-1--4-4-4-4-4-4-4-4--111110101010-11111010101010101010-]
G[-1-1-1-1-1-1-1-1--4-4-4-4-4-4-4-4--111110101010-11111010101010101010-]
C[-1-1-1-1-1-1-1-1--4-4-4-4-4-4-4-4--111110101010-11111010101010101010-]

D[-----------------------------------]
A[-----------------------------------]
F[-----------------------------------]
C[-111110101010-11111010101010101010-]
G[-111110101010-11111010101010101010-]
C[-111110101010-11111010101010101010-]

Chorus (End): The first time thorugh they use some pedal.
D[-----------------------------------------------------------------]
A[-----------------------------------------------------------------]
F[--------------------4-4-4-3333-------------------6-6-6-6-6-6-6-6-]
C[-6-6-6-8888-6-6-88--4-4-4-------4-4-4-4-4-4-4-4--6-6-6-6-6-6-6-6-](3X)
G[-6-6-6------6-6-----2-2-2-------4-4-4-4-4-4-4-4--4-4-4-4-4-4-4-4-]
C[-6-6-6------6-6-----------------4-4-4-4-4-4-4-4------------------]

Comments about this tab

Guitar4GOD rio - 2007-02-01

This tab is OK, but the song is in STANDARD tuning. Thanks anyway... God Bless!


U B the band - 2007-02-13

No it's in D flat (C sharp).


sac346 - 2007-03-23

the song is not in standart tuning. and you can play it in Drop C# or drop C. i had it tabbed for drop C because that's what my guitar was in.


sac346 - 2007-03-23

shoot. i really screwed this one up. lol oh well, i'll pu a better one up later


Add a comment/correction

Complimentary Christian Ringtones
Dadamobile and CGR have teamed up to bring your favorite Christian artists right to your phone. Sign up today and get 10 complementary ringtones!
Tab Country
Did you know CGR has a sister site w/ country guitar tabs? Well we do! Its called Tab Country. It has a great archive with a lot of country tabs.
Rockin Tabs
Are you looking for a site that has rock guitar tabs? Then Rockintabs.com is the place for you. It is a budding site with many rock guitar tabs. Submit your tab today.
Tab Gallery
Tab Gallery has a compilation of christian, rock, and country tabs all in one place. Come visit us.