Guitar Tabs
song title    band name

Join Us Today!

Don't strum alone...
be a part of the largest online Christian music community. Browse thousands of guitar tabs and chat w/ musicians like yourself.


It's Free!

This tab has not yet been rated for accuracy.Sorry, but you must be logged in to rate this tab.
Click here to log-in, or you can click here to register.
(Registration is free)

All songs owned by corresponding publishing company. If you make copies of any song on this website, be sure to report your usage to CCLI.
Submitted by: Duckwithme

HAIR by Everybodyduck
Words and Music: Everybodyduck
Album: Everybodyduck
copyright 1996 Christian Cake & Gospel Punch Music(BMI)


TUNING (low to high):
Guitar: EADGBe
Bass:   EADG

CHORDS:
x02010: Am7
13301x: Fadd9
x32010: C
022000: Em
577xxx: A5
133xxx: F5
x355xx: C5
022xxx: E5
x0221x: Am



[A] INTRO
  Moderately = 147bpm
    A5          F5            C5          E5
G]|-------------------------|-------------------------||
D]|o------------------------|-------5----------------o||
A]|o------7-----------3-----|-3--3-----3--------2----o||
E]|-5--5-----5--1--1-----1--|-------------0--0-----0--||


    Am7         Fadd9         C           Em *        4x
Gtr. 1 (clean)
e]--------------------------|---------------(0)-------|| 
B]--------1-----------1-----|-------1-----------0-----||*substitute note in ()
G]o----0-----0-----0-----0--|----0-----0-----0-----0-o|| last 3x.
D]o-------------------------|------------------------o||
A]--0-----------------------|-3-----------------------||
E]--------------1-----------|-------------0-----------||

G]|-------------------------|-------------------------||
D]|o------------------------|-------5----------------o||
A]|o------7-----------3-----|-3--3-----3--------2----o||
E]|-5--5-----5--1--1-----1--|-------------0--0-----0--||



[B] Verse
    Am7         Fadd9         C           Em *        8x
e]|-------------------------|---------------(0)-------|| 
B]|-------1-----------1-----|-------1-----------0-----||*substitute note in ()
G]|o---0-----0-----0-----0--|----0-----0-----0-----0-o|| 2nd, 4th, 6th, & 8th
D]|o------------------------|------------------------o|| times.
A]|-0-----------------------|-3-----------------------||
E]|-------------1-----------|-------------0-----------||

G]|-------------------------|-------------------------||
D]|o------------------------|-------5----------------o||
A]|o------7-----------3-----|-3--3-----3--------2----o||
E]|-5--5-----5--1--1-----1--|-------------0--0-----0--||



[C] Chorus
    A5          F5       C5               E5          4x
Gtr. 2 (dist.)
e]|-------------------------|-------------------------||
B]|-------------------------|-------------------------||
G]|o---------------------5__|(5)-5--5--5-------------o||
D]|o7--7--7--7--3--3--3--5__|(5)-5--5--5--2--2--2--2-o||
A]|-7--7--7--7--3--3--3--3__|(3)-3--3--3--2--2--2--2--||
E]|-5--5--5--5--1--1--1-----|-------------0--0--0--0--||

G]|-------------------------|-------------------------||
D]|o------------------------|------------------------o||
A]|o---------------------3__|(3)-3--3--3-------------o||
E]|-5--5--5--5--1--1--1-----|-------------0--0--0--0--||



[D] Interlude
    Am7         Fadd9         C           Em *        2x
e]--------------------------|---------------(0)-------|| 
B]--------1-----------1-----|-------1-----------0-----||*substitute note in ()
G]o----0-----0-----0-----0--|----0-----0-----0-----0-o|| last time.
D]o-------------------------|------------------------o||
A]--0-----------------------|-3-----------------------||
E]--------------1-----------|-------------0-----------||

Gtr. 2                        > 
e]|-------------------------|-------------------------||
B]|-------------------------|-------------------------||*Gtr. 2 fades out 1st
G]|o------------------------|------------------------o|| time
D]|o7_______________________|(7)---------------------o||
A]|-7_______________________|(7)----------------------||
E]|-5_______________________|(5)----------------------||

G]|-------------------------|-------------------------||*repeat Verse and Chorus
D]|o------------------------|-------5----------------o|| then skip to Breakdown.
A]|o------7-----------3-----|-3--3-----3--------2----o||
E]|-5--5-----5--1--1-----1--|-------------0--0-----0--||



[E] Breakdown
    Am7         Fadd9         C           Em *        2x
Gtr. 1
e]|-------------------------|---------------(0)-------|| 
B]|-------1-----------1-----|-------1-----------0-----||*substitute note in ()
G]|o---0-----0-----0-----0--|----0-----0-----0-----0-o|| last time.
D]|o------------------------|------------------------o||
A]|-0-----------------------|-3-----------------------||
E]|-------------1-----------|-------------0-----------||
Gtr. 2                        > 
e]|-------------------------|-------------------------||
B]|-------------------------|-------------------------||*Gtr. 2 fades out 1st
G]|o------------------------|------------------------o|| time
D]|o7_______________________|(7)---------------------o||
A]|-7_______________________|(7)----------------------||
E]|-5_______________________|(5)----------------------||

G]|-------------------------|-------------------------||
D]|o------------------------|------------------------o||
A]|o------------------------|------------------------o||
E]|-------------------------|-------------------------||



[F] Interlude
    Am7         Fadd9         C           Em *        3x
Gtr. 1
e]|-------------------------|----------------0--------|| 
B]|-------1-----------1-----|-------1-----------0-----||
G]|o---0-----0-----0-----0--|----0-----0-----------0-o||
D]|o------------------------|------------------------o||
A]|-0-----------------------|-3-----------------------||
E]|-------------1-----------|-------------0-----------||

G]|-------------------------|-------------------------||
D]|o------------------------|------------------------o||
A]|o------------------------|-3----------------------o||
E]|-5-----------1-----------|-------------0-----------||

   A5
e]-------------------------|-------------------------||
B]-------------------------|-------------------------||*repeat Chorus then skip
G]-------------------------|-------------------------|| to Outro.
D]-7--7--7--7--7--7--7--7--|-7--7--7--7--7--7--7--7--||
A]-7--7--7--7--7--7--7--7--|-7--7--7--7--7--7--7--7--||
E]-5--5--5--5--5--5--5--5--|-5--5--5--5--5--5--5--5--||
    *        *        *          *
G]-------------------------|-------------------------||*these notes are grace
D]--5h7--5-----------------|-------------------------|| notes and are played
A]----------75h7--5--33h5--|-3-----------------------|| quickly.
E]-------------------------|----53h5--3--5--5--5--5--||




[G] Outro
    A5          F5       C5               E5          8x
Gtr. 2 (dist.)
e]|-------------------------|-------------------------||
B]|-------------------------|-------------------------||
G]|o---------------------5__|(5)-5--5--5-------------o||
D]|o7--7--7--7--3--3--3--5__|(5)-5--5--5--2--2--2--2-o||
A]|-7--7--7--7--3--3--3--3__|(3)-3--3--3--2--2--2--2--||
E]|-5--5--5--5--1--1--1-----|-------------0--0--0--0--||

Gtr. 3 (dist.)
e]|-------------------------|----------------0--------|| 
B]|-------1-----------1-----|-------1-----------0-----||
G]|o---0-----0-----0--------|----0-----0-----------0-o||
D]|o------------------------|------------------------o||
A]|-0--------------------3__|(3)----------------------||
E]|-------------1-----------|-------------0-----------||

G]|-------------------------|-------------------------||
D]|o------------------------|------------------------o||
A]|o---------------------3__|(3)-3--3--3-------------o||
E]|-5--5--5--5--1--1--1-----|-------------0--0--0--0--||

   Am
e]--------------------------|-------------------------||
B]--------------------------|-------------------------||
G]--------------------------|-------------------------||
D]-7--7---------------------|-------------------------||
A]-7--7---------------------|-------------------------||
E]-5--5---------------------|-------------------------||

e]--------------------------|-------------------------||
B]-1--1---------------------|-------------------------||
G]-2--2---------------------|-------------------------||
D]-2--2---------------------|-------------------------||
A]-0--0---------------------|-------------------------||
E]--------------------------|-------------------------||

G]--------------------------|-------------------------||
D]--------------------------|-------------------------||
A]--------------------------|-------------------------||
E]-5--5---------------------|-------------------------||


Direct any comments to omsoad@aol.com
Thank you for viewing.

Comments about this tab

No comments/corrections found. Add your own

Complimentary Christian Ringtones
Dadamobile and CGR have teamed up to bring your favorite Christian artists right to your phone. Sign up today and get 10 complementary ringtones!
Tab Country
Did you know CGR has a sister site w/ country guitar tabs? Well we do! Its called Tab Country. It has a great archive with a lot of country tabs.
Rockin Tabs
Are you looking for a site that has rock guitar tabs? Then Rockintabs.com is the place for you. It is a budding site with many rock guitar tabs. Submit your tab today.
Tab Gallery
Tab Gallery has a compilation of christian, rock, and country tabs all in one place. Come visit us.