Guitar Tabs
song title    band name

Join Us Today!

Don't strum alone...
be a part of the largest online Christian music community. Browse thousands of guitar tabs and chat w/ musicians like yourself.


It's Free!

This tab has been rated a 5.00 out of 5 for accuracy. (1 vote)Sorry, but you must be logged in to rate this tab.
Click here to log-in, or you can click here to register.
(Registration is free)

All songs owned by corresponding publishing company. If you make copies of any song on this website, be sure to report your usage to CCLI.
Submitted by: AndrewU

Band:The Lads 
Song:My Forever smoochy girl
Album:Lost@Sea
Tabbed by Andrew upton

Verse
e-----------------------------------
b-----------------------------------
g----7-7-7-7------------------------ 2x
d----7-7-7-7-7-7-7-7-9-9-9-9-5-5-5-5
a----5-5-5-5-7-7-7-7-9-9-9-9-5-5-5-5
e------------5-5-5-5-7-7-7-7-3-3-3-3

Pre chorus
e-----------------------------
b-----------------------------
g----7-7-7-7------------------
d----7-7-7-7-7-7-7-7-9-9-9-9-5 2x
a----5-5-5-5-7-7-7-7-9-9-9-9-5
e------------5-5-5-5-7-7-7-7-3

Chorus

e----------------------------
b----------------------------
g-7-7-7-7-7-7-7-------------- repeat 4x
d-7-7-7-7-7-7-7-5-5-5-5-5-5-5
a-5-5-5-5-5-5-5-5-5-5-5-5-5-5
e---------------3-3-3-3-3-3-3

Bridge
e-----------------------------------------------------------
b-----------------------------------------------------------
g---------------------------------------------7-7-7-7-7-7-7- 2x
d-7-7-7-7-7-7-7-7-7-7-7-7-7-7-7-7-7-7-7-7-7-7-7-7-7-7-7-7-7-
a-7-7-7-7-7-7-7-7-7-7-7-7-7-7-7-7-7-7-7-7-7-7-5-5-5-5-5-5-5-
e-5-5-5-5-5-5-5-5-5-5-5-5-5-5-5-5-5-5-5-5-5-5---------------

Back to chorus
Thanks for reading my first tab

Comments about this tab

AndrewU - 2007-02-06

Just a few corrections
The number of times to play chords is a rough estimate
Distorsion
Pre Chorus
e---
b---
g---"and its easy to say" "That you will always be"
d---7-7-7-7-7-7-7-7-7-5-5-5-5-7-7-7-7-7-7-7-7-5-------
a---7-7-7-7-7-7-7-7-7-5-5-5-5-7-7-7-7-7-7-7-7-5-------
e---5-5-5-5-5-5-5-5-5-3-3-3-3-5-5-5-5-5-5-5-5-3-------

Chorus
e----------------------------------------------------------
b----------------------------------------------------------
g---7-7-7-7-7-7-7------------------------------------------ x1 1st time
d---7-7-7-7-7-7-7-5-5-5-5-5-5-5-9-9-9-9-9-9-9-7-7-7-7-7-7-7 x2 2nd+3rd time
a---5-5-5-5-5-5-5-5-5-5-5-5-5-5-9-9-9-9-9-9-9-7-7-7-7-7-7-7
e-----------------3-3-3-3-3-3-3-7-7-7-7-7-7-7-5-5-5-5-5-5-5

Bridge
e------------------------------------------------------------
b------------------------------------------------------------
g-----------------------------------------------7-7-7-7-7-7-7 repeat
d---5-5-5-5-5-5-5-5-5-5-5-5-5-5-5-5-5-5-5-5-5-5-7-7-7-7-7-7-7
a---5-5-5-5-5-5-5-5-5-5-5-5-5-5-5-5-5-5-5-5-5-5-5-5-5-5-5-5-5
e---3-3-3-3-3-3-3-3-3-3-3-3-3-3-3-3-3-3-3-3-3-3--------------

Instrumental
e------------------------------------------------------------
b------------------------------------------------------------
g---7-7-7-7-7-7-7-------------------------------------------- to chrous
d---7-7-7-7-7-7-7-5-5-5-5-5-5-5-9-9-9-9-9-9-9-7-7-7-7-7-7-7-7
a---5-5-5-5-5-5-5-5-5-5-5-5-5-5-9-9-9-9-9-9-9-7-7-7-7-7-7-7-7
e-----------------3-3-3-3-3-3-3-7-7-7-7-7-7-7-5-5-5-5-5-5-5-5

thankyou


AndrewU - 2007-02-06

Just a few corrections
The number of times to play chords is a rough estimate
Distorsion
Pre Chorus
e-----------------------------------------------------
b-----------------------------------------------------
g---"and its easy to say" "That you will always be"
d---7-7-7-7-7-7-7-7-7-5-5-5-5-7-7-7-7-7-7-7-7-5-------
a---7-7-7-7-7-7-7-7-7-5-5-5-5-7-7-7-7-7-7-7-7-5-------
e---5-5-5-5-5-5-5-5-5-3-3-3-3-5-5-5-5-5-5-5-5-3-------

Chorus
e----------------------------------------------------------
b----------------------------------------------------------
g---7-7-7-7-7-7-7------------------------------------------ x1 1st time
d---7-7-7-7-7-7-7-5-5-5-5-5-5-5-9-9-9-9-9-9-9-7-7-7-7-7-7-7x2 2nd+3rd time
a---5-5-5-5-5-5-5-5-5-5-5-5-5-5-9-9-9-9-9-9-9-7-7-7-7-7-7-7
e-----------------3-3-3-3-3-3-3-7-7-7-7-7-7-7-5-5-5-5-5-5-5

Bridge
e------------------------------------------------------------
b------------------------------------------------------------
g-----------------------------------------------7-7-7-7-7-7-7 repeat
d---5-5-5-5-5-5-5-5-5-5-5-5-5-5-5-5-5-5-5-5-5-5-7-7-7-7-7-7-7
a---5-5-5-5-5-5-5-5-5-5-5-5-5-5-5-5-5-5-5-5-5-5-5-5-5-5-5-5-5
e---3-3-3-3-3-3-3-3-3-3-3-3-3-3-3-3-3-3-3-3-3-3--------------

Instrumental
e------------------------------------------------------------
b------------------------------------------------------------
g---7-7-7-7-7-7-7-------------------------------------------- to chrous
d---7-7-7-7-7-7-7-5-5-5-5-5-5-5-9-9-9-9-9-9-9-7-7-7-7-7-7-7-7
a---5-5-5-5-5-5-5-5-5-5-5-5-5-5-9-9-9-9-9-9-9-7-7-7-7-7-7-7-7
e-----------------3-3-3-3-3-3-3-7-7-7-7-7-7-7-5-5-5-5-5-5-5-5

thankyou


Add a comment/correction

Complimentary Christian Ringtones
Dadamobile and CGR have teamed up to bring your favorite Christian artists right to your phone. Sign up today and get 10 complementary ringtones!
Tab Country
Did you know CGR has a sister site w/ country guitar tabs? Well we do! Its called Tab Country. It has a great archive with a lot of country tabs.
Rockin Tabs
Are you looking for a site that has rock guitar tabs? Then Rockintabs.com is the place for you. It is a budding site with many rock guitar tabs. Submit your tab today.
Tab Gallery
Tab Gallery has a compilation of christian, rock, and country tabs all in one place. Come visit us.