Guitar Tabs
song title    band name

Join Us Today!

Don't strum alone...
be a part of the largest online Christian music community. Browse thousands of guitar tabs and chat w/ musicians like yourself.


It's Free!

This tab has been rated a 5.00 out of 5 for accuracy. (1 vote)Sorry, but you must be logged in to rate this tab.
Click here to log-in, or you can click here to register.
(Registration is free)

All songs owned by corresponding publishing company. If you make copies of any song on this website, be sure to report your usage to CCLI.
Submitted by: BigGuitarPlaya3

Skillet
Say Goodbye

2006 (c) Atlantic Recording Corp. 

Verse:
Piano.......
Guitar comes in at very end with a F 
E---1--1--1--1--1-------------------
A---3--3--3--3--3-------------------
D---3--3--3--3--3-------------------
G-----------------------------------
B-----------------------------------
e-----------------------------------

Chorus: C-G-F-C-G-F-Am-G-F-C-Dm-F
E-----3--1-----3--1--5--3--1--------1--------------------------
A--3--5--3--3--5--3--7--5--3--3--5--3--------------------------
D--5--5--3--5--5--3--7--5--3--5--7--3--------------------------
G--5--------5-----------------5--7-----------------------------
B--------------------------------------------------------------
e--------------------------------------------------------------

Post Chorus lick: 
E--------------------------------------------------------------
A------------------------------12--10--10---------10-----------
D-----10--12--12--h14--12--10--------------10--9---------------
G--12----------------------------------------------------------
B--------------------------------------------------------------
e--------------------------------------------------------------

Verse 2: Piano and Guitar: C-G-F-C-G-F-Am-G-F-C-Dm-F-Dm-F
E-----3--1-----3--1--5--3--1--------1-----1----1--1--1--1--1---
A--3--5--3--3--5--3--7--5--3--3--5--3--5--3----3--3--3--3--3---
D--5--5--3--5--5--3--7--5--3--5--7--3--7--3----3--3--3--3--3---
G--5--------5-----------------5--7-----7-----------------------
B--------------------------------------------------------------
e--------------------------------------------------------------

Chorus: C-G-F-C-G-F-Am-G-F-C-Dm-F
E-----3--1-----3--1--5--3--1--------1--------------------------
A--3--5--3--3--5--3--7--5--3--3--5--3--------------------------
D--5--5--3--5--5--3--7--5--3--5--7--3--------------------------
G--5--------5-----------------5--7-----------------------------
B--------------------------------------------------------------
e--------------------------------------------------------------

Bridge: Am-B-C-Am-B-C-Am-B-C-Dm-Am-Dm-F
E--5--------5--------5-----------5-----1-----------------------
A--7--2--3--7--2--3--7--2--3--5--7--5--3-----------------------
D--7--4--5--7--4--5--7--4--5--7--7--7--3-----------------------
G-----4--5-----4--5-----4--5--7-----7--------------------------
B--------------------------------------------------------------
e--------------------------------------------------------------

Walk up:F-G-Am-B-C
E--1--3--5--7--8--------
A--3--5--7--9--10-------
D--3--5--7--9--10-------
G-----------------------
B-----------------------
e-----------------------

Key Change:D-A-G-D-A-G-Bm-A-G-D-E-G-x2--End on D 
E-----5--3-----5--3--7--5--3----------------
A--5--7--5--5--7--5--9--7--5--5--7--3-------
D--7--7--5--7--7--5--9--7--5--7--9--5-------
G--7--------7-----------------7--9--5-------
B-------------------------------------------
e-------------------------------------------x2

Comments about this tab

BigGuitarPlaya3 - 2006-12-05

The post chorus lick is an octave higher...Same notes just higher...


Quinnski - 2007-02-03

I'm pretty sure this tab is upside-down.

e-----
B-----
G-----
D--3--
A--3--
E--1-- that should be the F (and so on)


BigGuitarPlaya3 - 2007-02-05

Oh, Alright. My bad, It was my first post. It's the same chords and notes still I just did it upside down.


tw_1994 - 2007-05-16

I think that the B in the bridge is suposed to be a G, I cold be wrong though.


Add a comment/correction

Complimentary Christian Ringtones
Dadamobile and CGR have teamed up to bring your favorite Christian artists right to your phone. Sign up today and get 10 complementary ringtones!
Tab Country
Did you know CGR has a sister site w/ country guitar tabs? Well we do! Its called Tab Country. It has a great archive with a lot of country tabs.
Rockin Tabs
Are you looking for a site that has rock guitar tabs? Then Rockintabs.com is the place for you. It is a budding site with many rock guitar tabs. Submit your tab today.
Tab Gallery
Tab Gallery has a compilation of christian, rock, and country tabs all in one place. Come visit us.