Guitar Tabs
song title    band name

Join Us Today!

Don't strum alone...
be a part of the largest online Christian music community. Browse thousands of guitar tabs and chat w/ musicians like yourself.


It's Free!

This tab has been rated a 5.00 out of 5 for accuracy. (2 votes)Sorry, but you must be logged in to rate this tab.
Click here to log-in, or you can click here to register.
(Registration is free)

All songs owned by corresponding publishing company. If you make copies of any song on this website, be sure to report your usage to CCLI.
Submitted by: massi107

Hey Underoath completely rocks!!!  So I tabbed this version of "Reinventing 
Your Exit" for the young Underoath lovers out there who cannot read Drop D
Tuning. This is Standard Tuning E A D G B E
*= Palm Mute

Intro: 
|---------3---------------------
|---0-0-0-----------------------
|--5-5-5-5----------------------  16x
|-------------------------------
|-------------------------------
|-------------------------------
  0:28
|-------------------------------------------------
|-------------------------------------------------
|---5-5-5-5-5--5-5-5-5-5--------------------------
|---5-5-5-5-5--5-5-5-5-5--3-3-3-3-3--5-5-5-5-5-5-- 2x
|---0-0-0-0-0--3-3-3-3-3--1-1-1-1-1--3-3-3-3-3-3--
|-------------------------1-1-1-1-1--3-3-3-3-3-3-- 

Verse:  (It Starts again....) 0:41
|-----------------------------------------
|-----------------------------------------
|---5--5--5-----5--5--5-5-----------------
|---5--5--5-----5--5--5-5---5-5--5-5------  2x 
|--*0-*0--0----*3-*3-*3-3---3-3--3-3------
|---------------------------3-3--3-3------
   (Your Uninviting.....) 0:52
|-------------------------------------
|-------------------------------------
|---5-------3-------5-------2--------- 
|---5-(8x)--3-(8x)--5-(8x)--2-(8x)----  2x
|--*0------*1------*3------*0---------
|-------------------------------------

Pre Chorus: scream part (We all want to be...) 1:06
|-------------------------------    
|-------------------------------
|-------------------------------
|-3------7------5---------------     2x
|-1-(8x)-5-(4x)-3-(4x)----------
|-1------5------3---------------

Riff before 1st Chorus: (The Funky DoDoDoDoDoDaDaDoDoDoDoDoDaDa) 1:18
|-----------------------------------
|-----------------------------------
|-----------------------------------
|-----------------------------------
|--7-7-7-7-7-8-8-8-7-7-7-7-7-8-8-8--
|-----------------------------------

Chorus: (This is the way I....)      1:21
|-------------------------------------------------
|-------------------------------------------------
|---5-5-5-5-5--5-5-5-5-5--------------------------
|---5-5-5-5-5--5-5-5-5-5--3-3-3-3-3--5-5-5-5-5-5--  4x
|---0-0-0-0-0--3-3-3-3-3--1-1-1-1-1--3-3-3-3-3-3--
|-------------------------1-1-1-1-1--3-3-3-3-3-3--

Verse: (Its you and me, on a Monday....)  1:46
|-----------------------------------------
|-----------------------------------------
|---5--5--5-----5--5--5-5-----------------
|---5--5--5-----5--5--5-5---5-5--5-5------  2x 
|--*0-*0--0----*3-*3-*3-3---3-3--3-3------
|---------------------------3-3--3-3------
    (You broke my heart.....)    1:58
|-------------------------------------
|-------------------------------------
|---5-------3-------5-------2--------- 
|---5-(8x)--3-(8x)--5-(8x)--2-(8x)----  2x
|--*0------*1------*3------*0---------
|-------------------------------------

Pre Chorus: scream part (We all want to be...)   2:10
|-------------------------------    
|-------------------------------
|-------------------------------
|-3------7------5---------------     2x
|-1-(8x)-5-(4x)-3-(4x)----------
|-1------5------3---------------

Chorus: (This is the way I....)  2:23
|-------------------------------------------------
|-------------------------------------------------
|---5-5-5-5-5--5-5-5-5-5--------------------------
|---5-5-5-5-5--5-5-5-5-5--3-3-3-3-3--5-5-5-5-5-5--  4x
|---0-0-0-0-0--3-3-3-3-3--1-1-1-1-1--3-3-3-3-3-3--
|-------------------------1-1-1-1-1--3-3-3-3-3-3--

Bridge: (Reaching out for the hand....)    2:47

|----------------------------------------------------
|----------------------------------------------------
|----------------------------------------------------
|--7-7-7-7---7-7-7-7---3-3-3-3--5-5-5-5-------------- 2x
|--5-5-5-5---5-5-5-5---1-1-1-1--3-3-3-3--------------
|--5-5-5-5---5-5-5-5---1-1-1-1--3-3-3-3--------------
   Slow Part of the bridge       3:00
|----------------------------------
|----------------------------------
|----------------------------------
|----------------------------------
|--0---3-----------0---3-----------
|----------1---3-----------1---3---
   3:12
|-------------------------------------------------------------------
|-------------------------------------------------------------------
|-------------------------------------------------------------------
|--------5-5-5-5-5-------5-5-5-5-5-------5-5-5-5-5-------5-5-5-5-5-- 2x
|--0-0-0-----------3-3-3--------------------------------------------
|----------------------------------1-1-1-----------3-3-3------------
   (This is the way I....)  3:25
|---------------------------------------
|---------------------------------------
|---5-------5---------------------------
|---5-(8x)--5-(8x)--3-------5-----------  2x
|--*0------*3-------1-(8x)--3-(8x)------
|------------------*1------*3-----------
   (This is the way we....)    3:36
|--------------------------------------
|--------------------------------------
|--5-5-5-5-5-5-5-5---------------------
|--5-5-5-5-5-5-5-5-3-3-3-3-5-5-5-5-----  2x
|--0-0-0-0-3-3-3-3-1-1-1-1-3-3-3-3-----
|------------------1-1-1-1-3-3-3-3-----

Chorus: (This is the way I....)  3:49
|-------------------------------------------------
|-------------------------------------------------
|---5-5-5-5-5--5-5-5-5-5--------------------------
|---5-5-5-5-5--5-5-5-5-5--3-3-3-3-3--5-5-5-5-5-5--  4x
|---0-0-0-0-0--3-3-3-3-3--1-1-1-1-1--3-3-3-3-3-3--
|-------------------------1-1-1-1-1--3-3-3-3-3-3--

Thanks alot,
     My name is Nic Signer, please post any corrections if you have them. 
     Rock On, God Bless, and keep listening to UNDEROATH!!!!!!

Comments about this tab

Ooblar - 2007-03-18

this is great and not to hard to read


Add a comment/correction

Complimentary Christian Ringtones
Dadamobile and CGR have teamed up to bring your favorite Christian artists right to your phone. Sign up today and get 10 complementary ringtones!
Tab Country
Did you know CGR has a sister site w/ country guitar tabs? Well we do! Its called Tab Country. It has a great archive with a lot of country tabs.
Rockin Tabs
Are you looking for a site that has rock guitar tabs? Then Rockintabs.com is the place for you. It is a budding site with many rock guitar tabs. Submit your tab today.
Tab Gallery
Tab Gallery has a compilation of christian, rock, and country tabs all in one place. Come visit us.