Guitar Tabs
song title    band name

Join Us Today!

Don't strum alone...
be a part of the largest online Christian music community. Browse thousands of guitar tabs and chat w/ musicians like yourself.


It's Free!

This tab has not yet been rated for accuracy.Sorry, but you must be logged in to rate this tab.
Click here to log-in, or you can click here to register.
(Registration is free)

All songs owned by corresponding publishing company. If you make copies of any song on this website, be sure to report your usage to CCLI.
Submitted by: tordus

Artist: Living Sacrifice
Song: In Christ
Album: In Memorian
Year: 2005

tabbed by Tord-André tordus@hotmail.com

You figure out the melody yourself..

Living Sacrifice rocks!!!

START
C |----------------------------------------------------------------------------|
B |----------------------------------------------------------------------------|
G |----------------------------------------------------------------------------|
D |----------------------------------------------------------------------------|
A |----------10------14-------12-----------------------------------------------|
E |------0---8---0---12---0---10---0-------------------------------------------|


VERS
E |----------------------------------------------------------------------------|
B |----------------------------------------------------------------------------|
G |-----------8-------5--------------------------------------------------------|
D |-----------8-------3--------------------------------------------------------|
A |-------2---6---2---3--------------------------------------------------------|
E |-------0-------0------------------------------------------------------------|


REF. 1. guitar
E |----------------------------------------------------------------------------|
B |----------------------------------------------------------------------------|
G |----------------------------------------------------------------------------|
D |------0/12---2---14-------------------------------------------------------|
A |----------------------------------------------------------------------------|
E |------0---------------------------------------------------------------------|

   2. guitar
E |----------------------------------------------------------------------------|
B |----------------------------------------------------------------------------|
G |----------------------------------------------------------------------------|
D |-----2-------2-------2-------2----------------------------------------------|
A |-----2-------2-------2-------2----------------------------------------------|
E |-----0---0---0---0---0---0---0---0------------------------------------------|

START.

VERS.

REF.


  The guitar play this, then it comes a solo,
  but the guitar keep playing the same..
E |----------------------------------------------------------------------------|
B |----------------------------------------------------------------------------|
G |----------------------------------------------------------------------------|
D |-----2----------------------------------------------------------------------|
A |-----2----------------------------------------------------------------------|
E |-----0----------------------------------------------------------------------|


BIDGE/END (I do not know how too play)

Comments about this tab

Christsmetal - 2010-07-30

I don't know if you've actually listened to the song but...... It should actually be in either drop C or drop B tuning and NOT standard tuning. The reason, they are a DEATH METAL band, death metal bands ALWAYS double or triple drop tune their guitars (even their basses). And every time their drums beat, their guitars and basses hit another note. So see if you can't revise this tab and make it a lot better, I would but I don't own the CD, but I HAVE heard the song several times.
Just letting you know. :)


Add a comment/correction

Complimentary Christian Ringtones
Dadamobile and CGR have teamed up to bring your favorite Christian artists right to your phone. Sign up today and get 10 complementary ringtones!
Tab Country
Did you know CGR has a sister site w/ country guitar tabs? Well we do! Its called Tab Country. It has a great archive with a lot of country tabs.
Rockin Tabs
Are you looking for a site that has rock guitar tabs? Then Rockintabs.com is the place for you. It is a budding site with many rock guitar tabs. Submit your tab today.
Tab Gallery
Tab Gallery has a compilation of christian, rock, and country tabs all in one place. Come visit us.