Guitar Tabs
song title    band name

Join Us Today!

Don't strum alone...
be a part of the largest online Christian music community. Browse thousands of guitar tabs and chat w/ musicians like yourself.


It's Free!

This tab has been rated a 5.00 out of 5 for accuracy. (1 vote)Sorry, but you must be logged in to rate this tab.
Click here to log-in, or you can click here to register.
(Registration is free)

All songs owned by corresponding publishing company. If you make copies of any song on this website, be sure to report your usage to CCLI.
Submitted by: jcrulz

Title: Evermore
Artist: Hillsong
Album: For All You’ve Done

Hey guys how are you going. Sorry to correct most of you but I have sat and 
listened to this for ages. Sorry that this is actually the Hillsong version but 
it seems that CGR doesnt like Hillsong church and United being seperated.
I learnt this as only the best is worthy for our Awesome God! EXCELLENCE LADS! 

ok here is how it goes. This is without the Open Up The Heavens Intro.

In the verse you might want to walk up to the C by playing a G/B in between 
the Em and the C

Intro + Verse 
Em  C  G  D/F#

Pre Chorus
Em  D/F#  C

Chorus
G  D  C  Em  D  (Might want to play D2 and Dsus in conjunction with the D)     

Instrumental w/solo
C   Em  D  D
C   Em  D  D
Am7 C9  G  D/F#
Am7 C9  G  D/F#


SOLO
E------------------------------------------------------------------
B-----------10/12--12--12--12------------10/12--12--12--13---------
G---9--9--9-------------------9--9--9--9---------------------------
D------------------------------------------------------------------
A------------------------------------------------------------------
E------------------------------------------------------------------

E------------------------------------------------------------ (sorry if this
B------------------------------------------------------------ bit is hard to
G---11--12p11h12p11h12p11h12p11h12p11h12p11------------------ follow. It is
D-------------------------------------------12-12-12--------- simply this
A------------------------------------------------------------ G-11h12--
E------------------------------------------------------------ over and over)

E------------------------------------------------------------------
B-----------10/12--12--12--12------------10/12--12--12--13---------
G---9--9--9-------------------9--9--9--9---------------------------
D------------------------------------------------------------------
A------------------------------------------------------------------
E------------------------------------------------------------------

E------------------------------------------------------------------
B--------------------------------------------------5-5-5-5-7-7-7-7-
G--------------------------4-4-4-4-5-5-5-5-7-7-7-7-----------------
D--4-4-4-4-5-5-5-5-7-7-7-7-----------------------------------------
A------------------------------------------------------------------
E------------------------------------------------------------------

E-------10------10---10-----8-----8------------------------------(Nigel plays
B----10------10-----------8-----8-----8---12------12-------12---- broken chords
G--9-------9-------9----9-----9-----9--------12------12-------12- here. I dont
D-----------------------------------------------12------12------- have the DVD
A---------------------------------------------------------------- so I havent
E---------------------------------------------------------------- figured them 
out sorry)
E------------------------------------------------------------------
B-----10-----------------------------------------------------------
G--11----11----11h12p11--------------------------------------------
D-----------12----------12-----------------------------------------
A------------------------------------------------------------------
E------------------------------------------------------------------

E-------10------10---10-----8-----8--------------------------------
B----10------10-----------8-----8-----8---12------12-------12------
G--9-------9-------9----9-----9-----9--------12------12-------12---
D-----------------------------------------------12------12--------- 
A------------------------------------------------------------------ 
E------------------------------------------------------------------

E------------------------------------------------------------------(Listen to 
B--12-----------12-------------------------------------------------the song to
G-----12-----------12-------11h12p11h12----------------------------hear the 
D--------12-----------12----------------12------14/12/10--14/12/10-amount of 
A------------------------------------------------------------------time through
E------------------------------------------------------------------each slide)

OK Guys this isnt 100% to how Nigel plays it but it is extremely close! Sorry 
I couldnt do a better job but I dont have the DVD so i couldnt see Nigel do it! 


During the " You are holy" build up we play the Pre Chorus but here is how the 
guitar bit really goes. Try it and you decide whether it is right or not.

E-------------------------------------------------------------
B-------------------------------------------------------------
G---4----4----2----2----7----7----5----5----------------------
D------5----5----4----4----5----5----5----5-------------------
A-------------------------------------------------------------
E-------------------------------------------------------------

There it is they groovy little lead guitar build up. OK That I believe is 
100% correct. Test it out and you tell me if you think it is correct or not.

THANKS ALOT GUYS! REMEMBER: God is so worth it all.....practice and make 
our music excellent so that we may bring worship and praise that is worthy 
to HIM!! God deserves nothing short of excellent!! SO keep on praising up 
a storm!!

JameS

Comments about this tab

†never†alone† - 2007-03-14

GREAT TAB man!!! this is absolutly great. the broken chords are pretty easy to pick out with the DVD, but i dont tab very well. (youtube is great)


Add a comment/correction

Complimentary Christian Ringtones
Dadamobile and CGR have teamed up to bring your favorite Christian artists right to your phone. Sign up today and get 10 complementary ringtones!
Tab Country
Did you know CGR has a sister site w/ country guitar tabs? Well we do! Its called Tab Country. It has a great archive with a lot of country tabs.
Rockin Tabs
Are you looking for a site that has rock guitar tabs? Then Rockintabs.com is the place for you. It is a budding site with many rock guitar tabs. Submit your tab today.
Tab Gallery
Tab Gallery has a compilation of christian, rock, and country tabs all in one place. Come visit us.