Guitar Tabs
song title    band name

Join Us Today!

Don't strum alone...
be a part of the largest online Christian music community. Browse thousands of guitar tabs and chat w/ musicians like yourself.


It's Free!

This tab has not yet been rated for accuracy.Sorry, but you must be logged in to rate this tab.
Click here to log-in, or you can click here to register.
(Registration is free)

All songs owned by corresponding publishing company. If you make copies of any song on this website, be sure to report your usage to CCLI.
Submitted by: acmack94

Band: David Crowder Band
Song: You Alone
Album: The Lime CD

Tuning: Standard 
 
Legend:   h=hammer on/hammer off if hammering 0 {2h0}  
          s=slide up     
INTRO: 
 
e---0-----0------0----0   
B----0-----0------0---0 
G----------------------  X2  
D----------------------          
A-------------0-------- 
E--0----4-------------- 
 
e----20-----2h0----2s4 
B----0------0--------- 
G--------------------- 
D--------------------- 
A----------------0---- 
E--0-----4------------ 
 
e----00-----0-----00 
B----2-------0-----0 
G------------------- 
D------------------- 
A---------------0--- 
E--0-----4----------   
 
 
Verse: 
 
Play this during the verse: 
 
e--0-----0------0- 
B---0-----0------0 
G----------------- 
D----------------- 
A------------0---- 
E-0----4---------- 
 
Verse 1: 
 
You are the only one I need, I bow all of me at your 
feet, I worship you alone.  
 
In between Verse 1, and Verse 2 play this 
 
e------00 
B-------0 
G-------- 
D-------- 
A--0h2--- 
E-------- 
 
Verse 2: 
 
You have given me more than I could ever have wanted  
and I want to give you my heart and my soul. 
 
After Verse 2, play this 
 
e-----20-----2h0-----2s4- 
B-----0------0----------- 
G------------------------  Play this X2 
D------------------------  Except the second time 
A-----------------0------  pluck the slide to the 4th  
E--0------4--------------  fret on the high e string  
                           hard.  
 
Repeat Verse 1, and Verse 2 
Play the same thing as the first time 
except after Verse 2, the song dumps into the Chorus. 
During the Chorus play the same thing as the verse.  
 
Chorus: 
 
You alone are Father, and you alone are good. 
And you alone are Savior, and you alone are God. 
 
After the Chorus play the same thing as after Verse 2, 
when played the first time.  
 
REPEAT VERSE 1, AND VERSE 2, Chorus {repeat Chorus x2} 
then play the bridge. 
 
BRIDGE: 
 
Im alive, Im alive, Im alive, Im alive. {x4} 
 
During the Bridge play the same thing as the Verses,  
and Chorus. 
 
After Bridge Repeat the Chorus {x1} 
 
ENDING: 
 
e----20-----0-----0-------00-----20----2h0------0--0-0-0 
B------------0----0--------0-----0-----0---------0-0---0 
G------------------------------------------------------- 
D------------------------------------------------------- 
A---------------0----0h2--------------------0----------- 
E--0-----4--------------------0-------4----------------- 
 

Comments about this tab

No comments/corrections found. Add your own

Complimentary Christian Ringtones
Dadamobile and CGR have teamed up to bring your favorite Christian artists right to your phone. Sign up today and get 10 complementary ringtones!
Tab Country
Did you know CGR has a sister site w/ country guitar tabs? Well we do! Its called Tab Country. It has a great archive with a lot of country tabs.
Rockin Tabs
Are you looking for a site that has rock guitar tabs? Then Rockintabs.com is the place for you. It is a budding site with many rock guitar tabs. Submit your tab today.
Tab Gallery
Tab Gallery has a compilation of christian, rock, and country tabs all in one place. Come visit us.