Guitar Tabs
song title    band name

Join Us Today!

Don't strum alone...
be a part of the largest online Christian music community. Browse thousands of guitar tabs and chat w/ musicians like yourself.


It's Free!

This tab has been rated a 1.00 out of 5 for accuracy. (2 votes)Sorry, but you must be logged in to rate this tab.
Click here to log-in, or you can click here to register.
(Registration is free)

All songs owned by corresponding publishing company. If you make copies of any song on this website, be sure to report your usage to CCLI.
Submitted by: Sk8terrob

This is switchfoots new song from their upcoming album "Oh! Gravity."
(you can buy the Oh! Gravity. single on itunes)

 b  = bend
 /  = slide
< > = ghost harmonic

Normal Tuning

Intro
|--------------------|--|-----------------------------------------|
|-00---0------00-0-0-|--|-00-----0---00-0-0---00-----0---00-00-00-|
|-66-/-9-6----66-4-6-|x2|-44-/-7-4---44-2-4---66-/-9-6---66-44-22-|
|--------------------|--|-----------------------------------------|
|--------------------|--|-----------------------------------------|
|--------------------|--|-----------------------------------------|
                                                second time    first time
First Verse                                              |only|         only
|-----------------------------------|--|-----------V----V---------||--|
|----------------------------00-0-0-|--|-----------00-0-0---------||--|repeat
|----------------------------66-4-6-|x2|-----------44-2-4---------VV--|whole 
|-22--(wait about 3 seconds)--------|--|----(wait)---------22-----77--|verse
|-00--------------------------------|--|-55----------------00-----55--|
|-----------------------------------|--|-33---------------------------|

|-----------|
|-----------|
|-----------|
|-7777------|
|-5555-5555-|
|------3333-|

Chorus
|-------------------|
|----------33333333-|
|-22222222-22222222-|x4
|-22222222-00000000-|
|-00000000----------|
|-------------------|

Second Verse
|--------------------|
|-00---0------00-0-0-|
|-66-/-9-6----66-4-6-|x2
|--------------------|
|--------------------|
|--------------------|

Cool Piano Part :)

|---------------------------------------------------------------|
|---------------------------------------------------------------|
|---------------------------------------------------------------|
|-22-(wait about 3 seconds)-22-----------------22-----7777------|
|-00------------------------00-------55--------00-----5555-5555-|
|------------------------------------33--------------------3333-|

Chorus
 

Alt. Chorus
|-------------------------------------------------------------------------|
|----------33333333----------33333333----------33333333----------33333333-|
|----------22222222-22222222-22222222-22222222-22222222----------22222222-|
|-44444444-00000000-22222222-00000000-22222222-00000000-44444444-00000000-|
|-44444444----------00000000----------00000000----------44444444----------|
|-22222222----------------------------------------------22222222----------|

Bridge
|---------------------------------------------|
|---------------------------------------------|
|-----------------------------------6--4--42-|x2
|-222--6b----000--6b----222--6b-----0---------|
|-000--------000--------000---------0---------|
|---------------------------------------------|

|-------------------|
|----------33333333-|
|-22222222-22222222-|x2
|-22222222-00000000-|
|-00000000----------|
|-------------------|

|---------------------------------------------------|
|---------------------------------------------------|
|---------------------------------------------------|x2
|---<7>-<5>-<4>--<7>-<4>-<2>--<7>-<5>-<7>---<7>-<5>-|
|-0-------------------------------------------------|
|---------------------------------------------------|

Alt. Chorus

Chorus  (la lalala la la...)

END

Thats it hope you like it :)

feel free to leave corrections (i wanna learn better ways to play it too!)

Comments about this tab

amliu - 2007-01-03

Dude, it has to be in drop D.


Add a comment/correction

Complimentary Christian Ringtones
Dadamobile and CGR have teamed up to bring your favorite Christian artists right to your phone. Sign up today and get 10 complementary ringtones!
Tab Country
Did you know CGR has a sister site w/ country guitar tabs? Well we do! Its called Tab Country. It has a great archive with a lot of country tabs.
Rockin Tabs
Are you looking for a site that has rock guitar tabs? Then Rockintabs.com is the place for you. It is a budding site with many rock guitar tabs. Submit your tab today.
Tab Gallery
Tab Gallery has a compilation of christian, rock, and country tabs all in one place. Come visit us.