Guitar Tabs
song title    band name

Join Us Today!

Don't strum alone...
be a part of the largest online Christian music community. Browse thousands of guitar tabs and chat w/ musicians like yourself.


It's Free!

This tab has been rated a 3.25 out of 5 for accuracy. (4 votes)Sorry, but you must be logged in to rate this tab.
Click here to log-in, or you can click here to register.
(Registration is free)

All songs owned by corresponding publishing company. If you make copies of any song on this website, be sure to report your usage to CCLI.
Submitted by: Live4him101

Still Live4him1, My guitar was tuned to drop C# and it got screwed up so here is the real one!

Game On
Recorded by Disciple                                To give credit say made by Live4him101
Scars Remain

This song is in Drop C, and only Drop C! 
*=means that u need a Whammy bar and u just press it down on this chord
^= Bend this string

Palm muted

D---------------------------------------/------|
A---------------------------------------/------|
F---------------------------------------/------|        Intro and Intro part: 
C---------------------------------------/------|        4th time through this
G---------------------------------------/------|        You just play open on
C-0-0-0-0-0-0-653-0-0-0-0-0-0-653-------/-12slide--|       the intro then at  
                                                  The louder part play power
                                                             Chords                                                          

No Palm mute anymore

D---------------------------------------------|
A---------------------------------------------|
F---------------------------------------------|         Chorus
C----0-5-0-6530-----0-------------------------|
G----0-5-0-6530-----0-------------------------|
C----0-5-0-6530~~---0-------------------------|

D---------------------------------------------|
A-------------------32123212321232------------|
F---------------------------------------------|
C----0-5-0-6530-------------------------------|
G----0-5-0-6530-------------------------------|
C----0-5-0-6530~~-----------------------------|

D---------------------------------------------|
A---------------------------------------------|
F---------------------------------------------|
C----0-5-0-6530-------------------------------|
G----0-5-0-6530-------------------------------|
C----0-5-0-6530~~-----12 slide----------------|

D---------------------------------------------|
A---------------------------------------------|
F---------------------------------------------|
C----0-5-0-6530-------------------------------|
G----0-5-0-6530-------------------------------|
C----0-5-0-6530~~-----10 Slide----------------|






D------------------------------------------------|
A------------------------------------------------|        Verse 1&2
F------------------------------------------------|
C--000-------000-------000-------000-------------|
G--000-555555000-555555000-555555000-------------|
C--000-------000-------000-------000-------------|
                                *                                          *

D---------------------------------------------| Repeat
A---------------------------------------------|
F---------------------------------------------|
C-0~------------------------------------------|                Bridge
G-0~-355555555355555553555555535555566665555--|
C-0~------------------------------------------|

D-------------------------------------------------|
A-------------------------------------------------|
F-------------------------------------------------|
C-000---000---000---000---------------------------|
G-000---000---000---000---------------------------|
C-000---000---000---000----12 Slide---------------|

D---------------------------------------------|
A---------------------------------------------|
F---------------------------------------------|
C-00----000----00----000----------------------|
G-00-6^-000-6^-00-6^-000----------------------|
C-00----000----00----000----------------------|

D---------------------------------------------------|
A---------------------------------------------------|
F---------------------------------------------------|
C--653--653-------653--653----653------653-653000000|
G--653--653--6666-653--653-6--653-6666-653-653000000|
C--653--653-------653--653----653------653-653000000|

D---------------------------------------------|
A---------------------------------------------|
F---------------------------------------------|
C---653---653---653---653---------------------|
G---653-6-653-3-653-6-653-3-------------------|
C---653---653---653---653---------------------|

Palm Mute all but the Bend
D---------------------------------------------|
A---------------------------------------------| Altered Intro Part
F---------------------------------------------|
C---------------------------------------------|
G----------------------------6^---------------|
C--0000006530000065300000653------------------|








D---------------------------------------------|
A---------------------------------------------|
F---------------------------------------------|        altered outro chorus
C----0-5-0-653--0-5-0-653-0-5-0-653-0-5-03356-|
G----0-5-0-653--0-5-0-653-0-5-0-653-0-5-03356-|
C----0-5-0-653--0-5-0-653-0-5-0-653-0-5-03356-|

Palm Mute last open notes
D---------------------------------------------|
A---------------------------------------------|
F---------------------------------------------|        altered outro chorus
C----0-5-0-653--0-5-0-653-0-5-0-653-0000------|
G----0-5-0-653--0-5-0-653-0-5-0-653-0000------|
C----0-5-0-653--0-5-0-653-0-5-0-653-0000------|



ORDER OF THE SONG

Intro
Intro Part
Chorus
Verse 1
Intro Part
Chorus
Verse 2
Intro Part
Chorus
Bridge +Guitar and some Kevin Screams
Altered Intro Part
Chorus
Altered Outro

Comments about this tab

Live4him101 - 2006-11-17

Come on guys this is perfect and like no1 is using it! Some1 please comment!


Live4him101 - 2006-11-17

I do not know much about guitar, but I know this was done with dedication and passion. LYF


Disciple Freak - 2006-11-27

pretty good!!!


DiscipleRawks - 2007-10-12

ok, u asked 4 a comment and here is all that i fond wrong with it other than
this its perfect.

in the chorus it should be

c-0-3-0-6530--
g-0-3-0-6530--
c-0-3-0-6530--

on the bridge it should be

c---------------------------------------------------------
g-3h5-55555555555555-3h5-55555555555555-3h5-55555566663333
C---------------------------------------------------------

c-000---000h3---000h3---000h3------------------------------
g-000---000h3---000h3---000h3------------------------------
c-000---000h3---000h3---000h3----12slide-------------------

c-00h3----000h3----00h3----000h3---------------------------
g-00h3-7^-000h3-7^-00h3-7^-000h3---------------------------
c-00h3----000h3----00h3----000h3---------------------------

c-0650--0650-------0650--0650----0650------0650-0650000000-
g-0650--0650--6666-0650--0650-6--0650-6666-0650-0650000000-
c-0650--0650-------0650--0650----0650------0650-0650000000-

c-0650---0650-3-0650---0650-3-----------------------------
g-0650-6-0650-3-0650-6-0650-3-----------------------------
c-0650---0650-3-0650---0650-3-----------------------------


other than those things its perfect


Add a comment/correction

Complimentary Christian Ringtones
Dadamobile and CGR have teamed up to bring your favorite Christian artists right to your phone. Sign up today and get 10 complementary ringtones!
Tab Country
Did you know CGR has a sister site w/ country guitar tabs? Well we do! Its called Tab Country. It has a great archive with a lot of country tabs.
Rockin Tabs
Are you looking for a site that has rock guitar tabs? Then Rockintabs.com is the place for you. It is a budding site with many rock guitar tabs. Submit your tab today.
Tab Gallery
Tab Gallery has a compilation of christian, rock, and country tabs all in one place. Come visit us.