Guitar Tabs
song title    band name

Join Us Today!

Don't strum alone...
be a part of the largest online Christian music community. Browse thousands of guitar tabs and chat w/ musicians like yourself.


It's Free!

This tab has been rated a 4.40 out of 5 for accuracy. (5 votes)Sorry, but you must be logged in to rate this tab.
Click here to log-in, or you can click here to register.
(Registration is free)

All songs owned by corresponding publishing company. If you make copies of any song on this website, be sure to report your usage to CCLI.
Submitted by: ROBBY_tabber

I sent this tab in already I know but I didnt put the reason I think you 
should put mine in the archive……..Here is the reason:  Mine will help people
play this song better. Because, no offense to the other tabbers,  but theirs 
are wrong and not as detailed.  So hopefully you will put it up.  Here it is....


Disciple – Rise Up                 
Drop C – (CGCFAD)

Hey this is my first tab, so let me know what ya think. Thanks. Here it is.....

INTRO
D|------------------------------------------------
A|------------------------------------------------
F|-----------------------------5-7----------------
C|--------------------5-7-----------0-5-7---------
G|----------0-6-8-----------0---------------------
C|--0--5-8----------0----------------------------- (Play 4x)
  P.M  . .  . . .   . . .   .  . .  . . .


SECOND INTRO
D|---------------------------------------------------------------
A|---------------------------------------------------------------
F|------------------------------------------------8-8-8-8-8-8----
C|-0-0-2-2h3-3-3-2-0-1-1-2-0--0-2-2h3-3-3-2-0-----x-x-x-x-x-x----
G|-0-0-2-2h3-3-3-2-0-1-1-2-0--0-2-2h3-3-3-2-0-----6-6-6-6-6-6----
C|-0-0-2-2h3-3-3-2-0-1-1-2-0--0-2-2h3-3-3-2-0-------------------- (Play 2x)


VERSE
D|-------------------------------------
A|-------------------------------------
F|------7-------7----------------------
C|--------------------------8-8-10-----
G|-------8h10----8h10------------------
C|--0---------------------------------- (Play 4x)
 

PRE-CHORUS
D|-----------------------------------
A|-----------------------------------
F|-----------------8-----------------
C|--0-0--------0-0-x-0--------0------
G|--0-0--------0-0-6-0--------0------
C|--0-0--------0-0---0--------0------


CHORUS
D|---------------------------------------------------
A|---------------------------------------------------
F|-------8-8-8-8-----8-8--------8-8-8-8-----8-8------
C|--0-0--x-x-x-x--0--x-x---0-0--x-x-x-x--0--x-x -----
G|--0-0--6-6-6-6--0--6-6---0-0--6-6-6-6--0--6-6------
C|--0-0-----------0--------0-0-----------0----------- (Play 2x)


SECOND VERSE
D|-----------------------------
A|-----------------------------
F|----7------7-----------------
C|-0--7-3h5--7-3h5--8-8-10-----
G|-0--5-3h5--5-3h5--8-8-10-----
C|-0----3h5----3h5--8-8-10----- (Play 2x)

*Its the same notes as the first time the verse is played but it plays 
the whole chords on the second verse*


OUTRO
D|-----------------------------------------------
A|-----------------------------------------------
F|-----------------------------------------------
C|--0—0-6-0-6--0-6-0-6--0-0-6-0-6--0-6-0-6-6-----
G|--0—0-6-0-6--0-6-0-6--0-0-6-0-6--0-6-0-6-6-----
C|--0—0-6-0-6--0-6-0-6--0-0-6-0-6--0-6-0-6-6----- (Play 2x)


ARRANGMENT

 INTRO
 SECOND INTRO
 VERSE
 PRE CHORUS
 CHORUS
 SECOND INTRO  (only play 2x)
 SECOND VERSE
 PRE CHORUS
 CHORUS
 SECOND INTRO
 INTRO
 CHORUS
 OUTRO

Thats it. Hope it helps ya. Later...
    -ROBBY

Comments about this tab

patrickxr80 - 2006-11-09

you rock


ROBBY_tabber - 2006-11-09

CORRECTION......the intro.......the 8 should be a 7 .....so it goes 0--5-7......sorry bout that...later


Add a comment/correction

Complimentary Christian Ringtones
Dadamobile and CGR have teamed up to bring your favorite Christian artists right to your phone. Sign up today and get 10 complementary ringtones!
Tab Country
Did you know CGR has a sister site w/ country guitar tabs? Well we do! Its called Tab Country. It has a great archive with a lot of country tabs.
Rockin Tabs
Are you looking for a site that has rock guitar tabs? Then Rockintabs.com is the place for you. It is a budding site with many rock guitar tabs. Submit your tab today.
Tab Gallery
Tab Gallery has a compilation of christian, rock, and country tabs all in one place. Come visit us.