Guitar Tabs
song title    band name

Join Us Today!

Don't strum alone...
be a part of the largest online Christian music community. Browse thousands of guitar tabs and chat w/ musicians like yourself.


It's Free!

This tab has been rated a 4.50 out of 5 for accuracy. (2 votes)Sorry, but you must be logged in to rate this tab.
Click here to log-in, or you can click here to register.
(Registration is free)

All songs owned by corresponding publishing company. If you make copies of any song on this website, be sure to report your usage to CCLI.
Submitted by: timmeh123

INTRO/VERSE RIFF

E|----------------------------------|
B|-----8-------------8--------------|
G|-----7--7-7-7-7-7--5--7-7-7-7-7---|
D|-----5--7-7-7-7-7--5--7-7-7-7-7---|
A|--------5-5-5-5-5-----5-5-5-5-5---|
E|----------------------------------|

CHORUS CHORDS

ELECTRIC GUITARS PLAY THE POWER CHORDS FOR EACH CHORD

G, D, Em, D, C, G, D, Am7, B, C, G,

I MADE THIS SMALL SOLO RIFF TO PLAY DURING THE SECOND VERSE

E|-------------------------------------------------------------------------|
B|-------------------------------------------------------------------------|
G|------------16---------------------------------16--------------19-17-16--|
D|---17-16-17----17--17-16-17-----------17-16-17----17--17-16-17-----------|
A|----------------------------19-17-15-------------------------------------|
E|-------------------------------------------------------------------------|

INSTRUMENTAL PLAY FOR BARS OF POWER CHORDS FOR THESE CHORDS

Em C 

BRIDGE

G, C

THIS BIT I MADE, PLAY IT TWICE THROUGH AND THEN DO THE NEXT TAB

E|----------------------------------------------------|
B|----------------------------13------15-13-12--------|
G|----12------------12-14-12--12---------------12-----|
D|----12---------12-----------10------------------10--|
A|----10------10--------------------------------------|
E|----------------------------------------------------|

  E|-----------------------------|    |----------------------------|
  B|-----------------------------|    |---13-13-13-13-13-15-13-12--|
  G|---12-12-12-12-12-14-12-12---|    |----------------------------|
  D|-----------------------------|    |----------------------------|
  A|-----------------------------|    |----------------------------|
  E|-----------------------------|(X2)|----------------------------|(X2)
|_______________________________________________________________________|
                                   |
   (LEAD GUITAR PLAYS UNTIL END OF BRIDGE, RHYTHM GUITAR PLAYS CHORDS)

THE ACOUSTIC GUITAR OR KEYBOARD CHORDS ARE

INTRO
Em, Em, C, D, Em, Em, C, Am7

VERSE
Em, C, D
Em, C, Am7
Em, C, D
Em, C, D

CHORUS
G, D
Em
D, C
G, D
Am7, B, C, G

INSTRUMENTAL
Em, Em, Em, Em, C, C, C, C

BRIDGE
G

C

Comments about this tab

6strings21frets - 2007-01-07

This is great, but in the chorus, you will find that instead of a B, it is a G/B.


Add a comment/correction

Complimentary Christian Ringtones
Dadamobile and CGR have teamed up to bring your favorite Christian artists right to your phone. Sign up today and get 10 complementary ringtones!
Tab Country
Did you know CGR has a sister site w/ country guitar tabs? Well we do! Its called Tab Country. It has a great archive with a lot of country tabs.
Rockin Tabs
Are you looking for a site that has rock guitar tabs? Then Rockintabs.com is the place for you. It is a budding site with many rock guitar tabs. Submit your tab today.
Tab Gallery
Tab Gallery has a compilation of christian, rock, and country tabs all in one place. Come visit us.