Guitar Tabs
song title    band name

Join Us Today!

Don't strum alone...
be a part of the largest online Christian music community. Browse thousands of guitar tabs and chat w/ musicians like yourself.


It's Free!

This tab has been rated a 1.00 out of 5 for accuracy. (2 votes)Sorry, but you must be logged in to rate this tab.
Click here to log-in, or you can click here to register.
(Registration is free)

All songs owned by corresponding publishing company. If you make copies of any song on this website, be sure to report your usage to CCLI.
Submitted by: Monkey Bob

I Am Free
Newsboys

OK newsboys fans, this is from their greatest cd ever, GO! This is just
the intro and chorus tab but it works so.


e----------------------
B--12---10--9--10--9---        x how ever many desired
G----------------------
D----------------------
A----------------------
E----------------------

Hope that helps and courage in God Speed
Ian Harmony Holm

Comments about this tab

Cmusicfan2000 - 2008-09-18

I have a suggestion...I think the intro sounds a lot better if you play it like this:

e-7-7-7-5-5-5-4-4-4-5-5-5-4-4-5-5
b-5-5-5-5-5-5-5-5-5-5-5-5-5-5-5-5
g-0-0-0-0-0-0-0-0-0-0-0-0-0-0-0-0
d-0-0-0-0-0-0-0-0-0-0-0-0-0-0-0-0
a-0-0-0-0-0-0-0-0-0-0-0-0-0-0-0-0
E-0-0-0-0-0-0-0-0-0-0-0-0-0-0-0-0

It just adds some harmony in there, but great start!


Cmusicfan2000 - 2008-09-18

Whoops my bad! I kinda typed that out in a hurry so i typed it wrong.
It acually sounds good like this:

e-7-7-7-5-5-5-4-4-4-5-5-5-4-4-5-5
b-5-5-5-5-5-5-5-5-5-5-5-5-5-5-5-5
g--------------------------------
d--------------------------------
a--------------------------------
E--------------------------------


Add a comment/correction

Complimentary Christian Ringtones
Dadamobile and CGR have teamed up to bring your favorite Christian artists right to your phone. Sign up today and get 10 complementary ringtones!
Tab Country
Did you know CGR has a sister site w/ country guitar tabs? Well we do! Its called Tab Country. It has a great archive with a lot of country tabs.
Rockin Tabs
Are you looking for a site that has rock guitar tabs? Then Rockintabs.com is the place for you. It is a budding site with many rock guitar tabs. Submit your tab today.
Tab Gallery
Tab Gallery has a compilation of christian, rock, and country tabs all in one place. Come visit us.