Guitar Tabs
song title    band name

Join Us Today!

Don't strum alone...
be a part of the largest online Christian music community. Browse thousands of guitar tabs and chat w/ musicians like yourself.


It's Free!

This tab has been rated a 5.00 out of 5 for accuracy. (2 votes)Sorry, but you must be logged in to rate this tab.
Click here to log-in, or you can click here to register.
(Registration is free)

All songs owned by corresponding publishing company. If you make copies of any song on this website, be sure to report your usage to CCLI.
Submitted by: sanctusfan17

Title:Worship You Alone
Artist:Planet Shakers
Album: Pick It Up
Tabber:sanctsfan17

this sounds kool in between the low part and hi part just slide

E|--0--2--3--5-----0--2--3--0-|
B|--------------3-------------|

real simple then hi part is

E|--12--14--15--17--14--10--12--14--15--12|

thats it  if it sounds rong tell me 
coz i onli done it on the top of me head!

Comments about this tab

s0ld-0ut - 2007-03-14

Hey!

I've been trying to work this out for ages!! i jsut tried it out
and i think that there is just 1 note missing
while still on the low ovtace, i think there needs to be an extra F# note before you go to the D soo...

E -0-2-3-5-2-----0-2-3-0------
B ------------3---------------

Not much change but i think that is right
But once again..thx heaps for tabbing that out!
God Bless


Azzaintemple - 2007-04-23

E|----------------------------------------------------|
B|----------------------------------------------------|
G|---7--9--12--14--11----7--9--11-12--9---------------|
D|----------------------------------------------------|
A|---5--7--10--12--9-----5--7--9--10--7---------------|
E|----------------------------------------------------|

this is still pretty rough...but its generally what I play


Add a comment/correction

Complimentary Christian Ringtones
Dadamobile and CGR have teamed up to bring your favorite Christian artists right to your phone. Sign up today and get 10 complementary ringtones!
Tab Country
Did you know CGR has a sister site w/ country guitar tabs? Well we do! Its called Tab Country. It has a great archive with a lot of country tabs.
Rockin Tabs
Are you looking for a site that has rock guitar tabs? Then Rockintabs.com is the place for you. It is a budding site with many rock guitar tabs. Submit your tab today.
Tab Gallery
Tab Gallery has a compilation of christian, rock, and country tabs all in one place. Come visit us.