Guitar Tabs
song title    band name

Join Us Today!

Don't strum alone...
be a part of the largest online Christian music community. Browse thousands of guitar tabs and chat w/ musicians like yourself.


It's Free!

This tab has been rated a 4.20 out of 5 for accuracy. (5 votes)Sorry, but you must be logged in to rate this tab.
Click here to log-in, or you can click here to register.
(Registration is free)

All songs owned by corresponding publishing company. If you make copies of any song on this website, be sure to report your usage to CCLI.
Submitted by: Adam K

Switchfoot: Oh! Gravity
From: Oh! Gravity
Copyright  2006 Columbia Records
Drop D Tuning D-A-D-G-B-E

~=let it ring
b=bend

Intro
Gtr. 1
E[-0/0/0/0/0/0--0/0/0/0/0/0--0/0/0/0/0/0--0/0/0/0/0/0----]
B[-2/2/5/5/2/2--2/2/0/0/2/2--2/2/5/5/2/2--2/2/0/0/2/2----]
G[-------------------------------------------------------]
D[-------------------------------------------------------]
A[-------------------------------------------------------]
D[-------------------------------------------------------]

E[-0/0/0/0/0/0--0/0/0/0/0/0--0/0/0/0/0/0--0/0/0/0/0/0----]
B[-x/x/x/x/x/x--x/x/x/x/x/x--x/x/x/x/x/x--x/x/x/x/x/x----]
G[-4/4/7/7/4/4--4/4/2/2/4/4--6/6/9/9/6/6--6/6/4/4/2/2----]
D[-------------------------------------------------------]
A[-------------------------------------------------------]
D[-------------------------------------------------------]

Gtr. 2
E[--------------------------------------------------------]
B[--------------------------------------------------------]
G[--------------------------------------------------------]
D[-7/7---7-0/0---0-7/7---7-0/0---0-5/5---5-0/0---0-7/7----]
A[-7/7---7-0/0---0-7/7---7-0/0---0-5/5---5-0/0---0-7/7----]
D[-7/7---7-0/0---0-7/7---7-0/0---0-5/5---5-0/0---0-7/7----]

Verse 1
E[--------0/0/0/0/0/0--------0/0/0/0/0/0-------------------------------]
B[--------2/2/0/0/2/2--------2/2/0/0/2/2-------------------------------]
G[---------------------------------------------------------------------]
D[-7/7----------------7/7----------------5/5--------7/7--0/0-----------]
A[-7/7----------------7/7----------------5/5--------7/7--0/0-----------]
D[-7/7----------------7/7----------------5/5--------7/7--0/0-0/0/0/0---]

E[--------0/0/0/0/0/0--------0/0/0/0/0/0------0/0/0/0/0/0---------------------
B[--------2/2/0/0/2/2--------2/2/0/0/2/2------x/x/x/x/x/x---------------------
G[--------------------------------------------4/4/2/2/4/4---------------------
D[-7/7----------------7/7----------------5/5--------------7/7-----------------
A[-7/7----------------7/7----------------5/5--------------7/7-0/4/4/4/4-------
D[-7/7----------------7/7----------------5/5--------------7/7----------3/3/3/3

Chorus
Gtr. 1
E[-------------------------------------]
B[-10----10----10----10/10/10-10-10----]
G[--9-----9-----9----11/11/-9-11--9----]
D[-------------------------------------]
A[-------------------------------------]x2
D[-------------------------------------]

Gtr. 2
E[---------------------]
B[---------------------]
G[---------------------]
D[-7----0----7----0----]
A[-7----0----7----0----]x2
D[-7----0----7----0----]

Post-Chorus
Gtr. 1
E[-0/0/0/0/0/0--0/0/0/0/0/0--0/0/0/0/0/0----]
B[-2/2/5/5/2/2--2/2/0/0/2/2--2/2/5/5/2/2----]
G[------------------------------------------]
D[------------------------------------------]
A[------------------------------------------]
D[------------------------------------------]

Gtr. 2
E[---------------------------]
B[---------------------------]
G[----------------------6~~--]
D[-7/7---7-0/0---0-7/7-------]
A[-7/7---7-0/0---0-7/7-------]
D[-7/7---7-0/0---0-7/7-------]

Then Piano banging

Verse 2
E[----------------------------------------------------------------------------
B[----------------------------------------------------------------------------
G[----------------------------------------------------------------------------
D[----------------------------------------------------------------------------
A[-----------------------------------------------------------0/4/4/4/4--------
D[-7/7--7/7/0/0--0/0/7/7--7/7/0/0--0/0/5/5--5/5/0/0--0/0/7/7----------3/3/3/3-

Chorus 2
Gtr. 1
E[-------------------------------------]
B[-10----10----10----10/10/10-10-10----]
G[--9-----9-----9----11/11/-9-11--9----]
D[-------------------------------------]
A[-------------------------------------]x2
D[-------------------------------------]

Gtr. 2
E[---------------------]
B[---------------------]
G[---------------------]
D[-7----0----7----0----]
A[-7----0----7----0----]x2
D[-7----0----7----0----]

Then
Gtr. 2
E[-----------------------------------------]
B[-----------------------------------------]
G[-----------------------------------------]
D[-4----0----7----0----7----0----4----0----]
A[-4----0----7----0----7----0----4----0----]
D[-4----0----7----0----7----0----4----0----]

Bridge
Gtr. 2
E[-----------------------------]
B[-----------------------------]
G[-----------------------------]
D[-7/7----0/0----7/7----0/0----]
A[-7/7----0/0----7/7----0/0----]x2
D[-7/7----0/0----7/7----0/0----]

Gtr. 1
E[-----------------------------------]
B[--------------------------2-0------]
G[----2~2-----2~2----2~7----6-4-2----]
D[----6~7-----6~7----6~7--------7----]
A[-----------------------------------]
D[-----------------------------------]

E[---------------------------------------]
B[---------------------------------------]
G[----2~2-----2~2----2~7----2/2-2-2-2----]
D[----6~7-----6~7----6~7----7/7-6-4-2----]
A[---------------------------------------]
D[---------------------------------------]

Then
Gtr. 2
E[---------------------]
B[---------------------]
G[---------------------]
D[-7----0----7----0----]
A[-7----0----7----0----]
D[-7----0----7----0----]

Gtr. 1
E[-------------------------------------]
B[-10----10----10----10/10/10-10-10----]
G[--9-----9-----9----11/11/-9-11--9----]
D[-------------------------------------]
A[-------------------------------------]
D[-------------------------------------]

Chorus 3
Gtr. 1
E[---------------------------12--14----------]
B[-13b---------------------------------------]
G[-12b-14--12/11-14--11/9-14--------14-------]
D[-------------------------------------14----]
A[-------------------------------------------]x2
D[-------------------------------------------]

Then
Gtr. 2
E[-------]
B[-10----]
G[--9----]
D[-------]
A[-------]
D[-------]

Then
Gtr. 2
E[-----------------------------------------]
B[-----------------------------------------]
G[-----------------------------------------]
D[-4----0----7----0----7----0----4----0----]
A[-4----0----7----0----7----0----4----0----]
D[-4----0----7----0----7----0----4----0----]

Ending
Gtr. 2
E[---------------------]
B[---------------------]
G[---------------------]
D[-7----0----7----0----]
A[-7----0----7----0----]x2
D[-7----0----7----0----]

Gtr. 1
E[-------------------------------------]
B[-10----10----10----10/10/10-10-10----]
G[--9-----9-----9----11/11/-9-11--9----]
D[-------------------------------------]
A[-------------------------------------]x2
D[-------------------------------------]


Tabbed by Adam K

Comments about this tab

relient nelson - 2007-01-03

And again with the exact same way I play it. Great tab!


amliu - 2007-01-03

I am not going to vote till I see how Switchfoot does it in concert but mine is different though yours is good too. Good job!


amliu - 2007-01-03

But if possible you should add more guitars.


Adam K - 2007-01-04

I put 2. I didnt put rythym.


amliu - 2007-01-04

Yea. This sounds good. I just did not get the guitar 1 for the chorus part. Is it really quiet?


Adam K - 2007-01-04

not really.


Adam K - 2007-01-05

I saw them play it on the Late Show last night. Theres 2 guitars.
Jon and Andrew play. Jerome plays the keyboard and tamberine.


amliu - 2007-01-06

Okay, thanks.


nbfan - 2007-01-20

Actually, Jerome does have a guitar around his neck, so he must have been playing something.


nbfan - 2007-02-16

Theres 3 guitars in the song. Jerome and Drew are the two guitars in the tab, but Jon is just playing

e--x-x-x-x-x--
b--x-x-x-x-x--
g--x-x-x-x-x--
d--x-x-x-x-x--
a--x-x-x-x-x--
d--x-x-x-x-x--

on the verse, and then follows the other two guitars on the chorus and bridge.


Add a comment/correction

Complimentary Christian Ringtones
Dadamobile and CGR have teamed up to bring your favorite Christian artists right to your phone. Sign up today and get 10 complementary ringtones!
Tab Country
Did you know CGR has a sister site w/ country guitar tabs? Well we do! Its called Tab Country. It has a great archive with a lot of country tabs.
Rockin Tabs
Are you looking for a site that has rock guitar tabs? Then Rockintabs.com is the place for you. It is a budding site with many rock guitar tabs. Submit your tab today.
Tab Gallery
Tab Gallery has a compilation of christian, rock, and country tabs all in one place. Come visit us.