Guitar Tabs
song title    band name

Join Us Today!

Don't strum alone...
be a part of the largest online Christian music community. Browse thousands of guitar tabs and chat w/ musicians like yourself.


It's Free!

This tab has not yet been rated for accuracy.Sorry, but you must be logged in to rate this tab.
Click here to log-in, or you can click here to register.
(Registration is free)

All songs owned by corresponding publishing company. If you make copies of any song on this website, be sure to report your usage to CCLI.
Submitted by: Rockin4MyChrist

Artist: Pillar
Album:  The Reckoning
Song:   Resolution
Tuning: CGCFAD

Legend:
/          Slide Up
          Slide Down
PM or P.M  Palm mute
p          Pull Off
h          Hammer On

Intro:
D|--------------------------------------------------------------------------|
A|--------------------------------------------------------------------------|
F|--------------------------------------------------------------------------|
C|--------------------------------------------------------------------------|
G|000005p00007p008p0003p0---------------------------------------------------|
C|--------------------------------------------------------------------------|
do this four times then,

D|--------------------------------------------------------------------------|
A|--------------------------------------------------------------------------|
F|--------------------------------------------------------------------------|
C|--------------------------------------------------------------------------|
G|----1012101010121010------------------------------------------------------|
C|--------------------------------------------------------------------------|
      ______P.M_______
do the two parts above twice then go into the verse,


Verse:
D|--------------------------------------------------------------------------|
A|--------------------------------------------------------------------------|
F|--------------------------------------------------------------------------|
C|-----10---9/12-10---12p10------------10---9-9/12-12/14--------------------|
G|10h12--------------------12-----10h12---------------------12--------------|
C|--------------------------------------------------------------------------|
  _P.M_                           _P.M_


Background 2nd time through Verse (Had to split into 4 separate sections)
D|----------------------------|
A|----------------------------|
F|----------------------------|  Part 1       Background Summary:
C|-----------10-----------10--|                     Part 1
G|10101010h12--10101010h12----|                     Part 2
C|----------------------------|                     Part 1
  ____P.M____  ____P.M____                          Part 3
(palm mute notes above lines only)                  Part 1
                                                    Part 2
D|----------------------------|                     Part 1
A|----------------------------|                     Part 4
F|----------------------------|  Part 2
C|-----------12-----------12--|
G|10101010h12--10101010h12----|
C|----------------------------|
  ____P.M____  ____P.M____

D|----------------------------|
A|----------------------------|
F|----------------------------|  Part 3
C|-----------14-----------14--|
G|10101010h12--10101010h12----|
C|----------------------------|
  ____P.M____  ____P.M____

D|----------------------------------|
A|----------------------------------|
F|----------------------------------|  Part 4
C|-----------14-------14141414-5/7|
G|10101010h12--101010-12121212-5/7|
C|-----------------------------5/7|
  ____P.M____  __PM__       Quick Slide


Chorus (split into 7 parts) 

D|---------------------------------|
A|---------------------------------|
F|---------------------------------|  Part 1
C|10101010101010101010101010101010-|
G|7-7-7-7-7-7-7-7-7-7-7-7-7-7-7-7--|
C|7-7-7-7-7-7-7-7-7-7-7-7-7-7-7-7--|

D|---------------------------------|
A|---------------------------------|
F|---------------------------------|  Part 2    Chorus Summary:               
C|9999999999999999-----------------|                Part 1
G|5555555555555555-----------------|                Part 2
C|5555555555555555-----------------|                Part 3
                                                    Part 4
D|---------------------------------|                Part 1
A|---------------------------------|                Part 5
F|---------------------------------|  Part 3        Part 6
C|7777777777777777-----------------|                Part 7
G|3333333333333333-----------------|
C|3333333333333333-----------------|

D|---------------------------------|
A|---------------------------------|
F|---------------------------------|  Part 4
C|4444444444444444-----------------|
G|0000000000000000-----------------|
C|0000000000000000-----------------|

D|---------------------------------|
A|---------------------------------|
F|---------------------------------|  Part 5
C|14141414141414141212121212121212-|
G|9-9-9-9-9-9-9-9-9-9-9-9-9-9-9-9--|
C|9-9-9-9-9-9-9-9-9-9-9-9-9-9-9-9--|

D|---------------------------------|
A|---------------------------------|
F|---------------------------------|  Part 6
C|14141414141414141414141414141414-|
G|10101010101010101010101010101010-|
C|10101010101010101010101010101010-|
(slide down from the end of Part 6 to Part 7, sounds better)
D|---------------------------------|
A|---------------------------------|
F|---------------------------------|  Part 7
C|3-3-333-3-3----------------------|
G|3-3-333-3-3----------------------|
C|3-3-333-3-3----------------------|
      xxx
      PM^

Ending:
D|---------------------------------|
A|---------------------------------|
F|---------------------------------|
C|000-000-000**********************|
G|000-000-000**********************|
C|000-000-000**********************|


			     Song Summary:
			       Intro x 2
			       Verse x 1
	 	 Verse w/ Background x 1
			      Chorus x 1
			       Verse x 1
                 Verse w/ Background x 1
			      Chorus x 1
				Solo x 1
			      Bridge x 1
			      Chorus x 1
			      Ending x 1

Comments about this tab

rokrdude - 2007-03-06

where is the soloing in the latter part of the song but it looks good oder dan dat


jesusfreak936 - 2007-03-22

good tab! someone should do Chasing Shadows at Midnight...I'm trying to figure it out, but if someone could just save me the trouble that would be nice lol...but if they don't, i will eventually tab it lol...


DeathIsLife - 2008-08-04

man i wana learn the solo please try and tab it cus i really can't do that it's really hard for me cus i don't have an ear like all yall


Add a comment/correction

Complimentary Christian Ringtones
Dadamobile and CGR have teamed up to bring your favorite Christian artists right to your phone. Sign up today and get 10 complementary ringtones!
Tab Country
Did you know CGR has a sister site w/ country guitar tabs? Well we do! Its called Tab Country. It has a great archive with a lot of country tabs.
Rockin Tabs
Are you looking for a site that has rock guitar tabs? Then Rockintabs.com is the place for you. It is a budding site with many rock guitar tabs. Submit your tab today.
Tab Gallery
Tab Gallery has a compilation of christian, rock, and country tabs all in one place. Come visit us.