Guitar Tabs
song title    band name

Join Us Today!

Don't strum alone...
be a part of the largest online Christian music community. Browse thousands of guitar tabs and chat w/ musicians like yourself.


It's Free!

This tab has been rated a 5.00 out of 5 for accuracy. (1 vote)Sorry, but you must be logged in to rate this tab.
Click here to log-in, or you can click here to register.
(Registration is free)

All songs owned by corresponding publishing company. If you make copies of any song on this website, be sure to report your usage to CCLI.
Submitted by: Thirddayrocks21

Jars Of Clay
Disappear 
Gtr I (E A D G B E) - Steve Mason
Gtr II (E A D G B E) - Matt Oddmark
Gtr III (E A D G B E) - Steve Mason overdub


 Intro
  Esus2            Dsus2
 4/4
  Gtr I
   E   E  E        E   E  E
|----------------|---------------|
|-10---9-(9)----|---------------|
|--x---x-(x)-----|-6---4-(4)/----|
|--7---6-(6)----|-x---x-(x)-----|
|----------------|-4---2-(2)/----|
|----------------|---------------|


  A/Bb                   Dsus2      Esus2
   E     E   E      E                E     E  E
|----------------------|----------|-------------------|
|-14----12-(12)---10--|----------|-10-----9-(9)/-----|
|--x-----x--(x)-----x--|----------|--x-----x-(x)------|
|-11-----9--(9)----7--|----------|--7-----6-(6)/-----|
|----------------------|----------|-------------------|
|----------------------|----------|-------------------|
|
|                                   Gtr III
|                                    E  E  E  E   E E
|----------------------|----------|-------------------|
|----------------------|----------|-------------------|
|----------------------|----------|-------------------|
|----------------------|----------|-----------------7-|
|----------------------|----------|-----7-----7---9---|
|----------------------|----------|--7-----7----------|


  Dsus2                 A/Bb                 Dsus2
  E    E  E              E     E              E        E  E       E
|---------------------|--------------------|--------------------------|
|---------------------|-14----12-----------|-14-------12-12s=====10---|
|-6----4-(4)/---------|--x-----x-----------|--x--------x--x-------x---|
|-x----x-(x)/---------|-11-----9-----------|-11--------9--9s======7---|
|-4----2-(2)----------|--------------------|--------------------------|
|---------------------|--------------------|--------------------------|
|
|         E    E  E               E  E E E      E E E  E  E  E E  E E
|---------------------|--------------------|--------------------------|
|---------------------|--------------------|--------------------------|
|---------------------|--------------------|--------------------------|
|---------------------|----------------7-7-|------7-7-----6/-7-7--7-7-|
|--------------7--7/--|-----------7--9-----|----7------7--4/-5-5--5-7-|
|---------7-------5/--|--------------------|------------------------5-|


 Verse
  A5  AmajA5                 F#5 F#madd9F#m
  Gtr II
  E E E E E E  E E E E E E   E E E E E  E E E E  E E E E E  E E E
|-----5-5-4-0------5-5-4-0-|-----4-4-4--2-2-2--------4-4-4--2-2----|
|-----5-5-2-2------5-5-2-2-|-----2-2-2--2-2-2-2------2-2-2--2-2----|
|--------------2-2-2-------|-----2---2--2-2-2-2------2-2-2--2-2----|
|-2-2----------2-2---------|------------------4-----------------2--|
|-0-0----------0-0---------|-4-4-----------------4-4------------4--|
|--------------------------|-2-2-----------------2-2---------------|

Also few minutes in verse Steve Plays this
   E   E   E
|---------16----|
|-----14--------|
|-16------------|
|---------------|
|---------------|
|---------------|


 Chorus
  Esus2       Esus2         A/Bb          Dsus2
  Gtr I
  E E E       E  E E        E  E E E      E  E E E E
|-----------|-------------|-------------|----5---5-5---|
|-----------|-------------|-------------|------5-------|
|-----------|-7-----------|-9------9----|-7------------|
|-7h9-9-----|-7--7--------|-9----7-9----|-7------------|
|-7---7-----|-5----5------|-9--9---9----|-5------------|
|-----0-----|-------------|-7-----------|--------------|


 Interlude
  G                   A/Bb      G         Bm
  Gtr III
   E
|------------------|----------|---------|-----|
|------------------|----------|---------|-----|
|------------------|----------|---------|-----|
|--5---------------|----------|---------|-----|
|--5---------------|----------|---------|-----|
|--3---------------|----------|---------|-----|
|
| Gtr I
|  E    E   E   E     E
|------------------|----------|---------|-----|
|-12---10--12------|----------|---------|-----|
|--------------11--|--9-------|---------|-----|
|------------------|----------|---------|-----|
|------------------|----------|---------|-----|
|------------------|----------|---------|-----|


  G                   A/Bb         G
   E    E  E E  E E    E      E
|----------9-9h10-9-|------------|---------|----|
|-12---10-----------|------------|---------|----|
|-------------------|-11------9--|---------|----|
|-------------------|------------|---------|----|
|-------------------|------------|---------|----|
|-------------------|------------|---------|----|


 Outro
  Dsus2    A                  Em            Dsus2      BmA/BmA/Bb
  Gtr I
  E   E    E     E E          E   E         E    E
|--------|------------------|------------|-----------|---------|
|--------|------------------|------------|-----------|---------|
|--------|------------------|------------|-----------|---------|
|--------|-2-------2--------|------------|-------0---|---------|
|--------|-0-----0----------|-----7------|-----------|---------|
|-2s=12--|-0----------------|-7----------|--5/-------|---------|
|
| Gtr III
|          E E E E E E E E    E
|--------|-7-------7--------|------------|-----------|---------|
|--------|---5---5---5---5--|------------|-----------|---------|
|--------|-----6-------6----|------------|-----------|---------|
|--------|------------------|------------|-----------|---------|
|--------|------------------|------------|-----------|---------|
|--------|------------------|-0----------|-----------|---------|


  E  E  E
|------------|
|------------|
|------------|
|------------|
|-4--5--7----|
|------------|

Comments about this tab

No comments/corrections found. Add your own

Complimentary Christian Ringtones
Dadamobile and CGR have teamed up to bring your favorite Christian artists right to your phone. Sign up today and get 10 complementary ringtones!
Tab Country
Did you know CGR has a sister site w/ country guitar tabs? Well we do! Its called Tab Country. It has a great archive with a lot of country tabs.
Rockin Tabs
Are you looking for a site that has rock guitar tabs? Then Rockintabs.com is the place for you. It is a budding site with many rock guitar tabs. Submit your tab today.
Tab Gallery
Tab Gallery has a compilation of christian, rock, and country tabs all in one place. Come visit us.