Guitar Tabs
song title    band name

Join Us Today!

Don't strum alone...
be a part of the largest online Christian music community. Browse thousands of guitar tabs and chat w/ musicians like yourself.


It's Free!

This tab has been rated a 3.00 out of 5 for accuracy. (1 vote)Sorry, but you must be logged in to rate this tab.
Click here to log-in, or you can click here to register.
(Registration is free)

All songs owned by corresponding publishing company. If you make copies of any song on this website, be sure to report your usage to CCLI.
Submitted by: hiryuman07

C#G#C#F#A#D#

D#-------------------------------
A#-------------------------------
F#-------------------------------
C#-0-7-x5-7-3-------------------
G#-0-5-x5-7-3-------------------
C#-0---x5-7-3-------------------

D#-------------------------------
A#-------------------------------
F#-------------------------------
C#-0-7-x5-7-3-------------------
G#-0-5-x5-7-3-------------------
C#-0---x5-7-3-------------------

D#-------------------------------
A#-------------------------------
F#-------------------------------
C#-0-7-x5-7-3-------------------
G#-0-5-x5-7-3-------------------
C#-0---x5-7-3-------------------

D#-------------------------------
A#-------------------------------
F#-------------------------------
C#-888x10-----------------------
G#-888x10-----------------------
C#-888x10-----------------------

D#-------------------------------
A#-------------------------------
F#-------------------------------
C#-0-7-x5-7-3-------------------
G#-0-5-x5-7-3-------------------
C#-0---x5-7-3-------------------

D#-------------------------------
A#-------------------------------
F#-------------------------------
C#-0-7-x5-7-3-------------------
G#-0-5-x5-7-3-------------------
C#-0---x5-7-3-------------------

D#------------------------------
A#------------------------------
F#------------------------------
C#-0-7-x5-7-3-------------------
G#-0-5-x5-7-3-------------------
C#-0---x5-7-3-------------------

D#-------------------------------
A#-------------------------------
F#-------------------------------
C#-888x10-----------------------
G#-888x10-----------------------
C#-888x10-----------------------

D#-------------------------------
A#-------------------------------
F#-------------------------------
C#-0000000000000000--------------
G#-0000000000000000--------------
C#-0000000000000000--------------

D#-------------------------------
A#-------------------------------
F#-------------------------------
C#-555555555555555---------------
G#-333333333333333---------------
C#-------------------------------

D#-------------------------------
A#-------------------------------
F#-------------------------------
C#-55555555555555----------------
G#-55555555555555----------------
C#-55555555555555----------------

D#-------------------------------
A#-------------------------------
F#-------------------------------
C#-------------------------------
G#-10-----10---------------------
C#------10----9-10-9----10-9-----

D#-------------------------------
A#-------------------------------
F#-------------------------------
C#-0000000000000000--------------
G#-0000000000000000--------------
C#-0000000000000000--------------

D#-------------------------------
A#-------------------------------
F#-------------------------------
C#-555555555555555---------------
G#-333333333333333---------------
C#-------------------------------

D#-------------------------------
A#-------------------------------
F#-------------------------------
C#-55555555555555----------------
G#-55555555555555----------------
C#-55555555555555----------------

D#-------------------------------
A#-------------------------------
F#-------------------------------
C#-7-00-9-00-10-555-000-555-10---
G#-5-00-7-00--8-555-000-555-10---
C#---00---00----555-000-555-10---

D#------------------------------
A#------------------------------
F#------------------------------
C#-0-7-x5-7-3-------------------
G#-0-5-x5-7-3-------------------
C#-0---x5-7-3-------------------

D#------------------------------
A#------------------------------
F#------------------------------
C#-0-7-x5-7-3-------------------
G#-0-5-x5-7-3-------------------
C#-0---x5-7-3-------------------

D#------------------------------
A#------------------------------
F#------------------------------
C#-0-7-x5-7-3-------------------
G#-0-5-x5-7-3-------------------
C#-0---x5-7-3-------------------


D#-------------------------------
A#-------------------------------
F#-------------------------------
C#-888x10-----------------------
G#-888x10-----------------------
C#-888x10-----------------------

D#------------------------------
A#------------------------------
F#------------------------------
C#-0-7-x5-7-3-------------------
G#-0-5-x5-7-3-------------------
C#-0---x5-7-3-------------------

D#------------------------------
A#------------------------------
F#------------------------------
C#-0-7-x5-7-3-------------------
G#-0-5-x5-7-3-------------------
C#-0---x5-7-3-------------------

D#------------------------------
A#------------------------------
F#------------------------------
C#-0-7-x5-7-3-------------------
G#-0-5-x5-7-3-------------------
C#-0---x5-7-3-------------------

D#-------------------------------
A#-------------------------------
F#-------------------------------
C#-888x10-----------------------
G#-888x10-----------------------
C#-888x10-----------------------

D#-------------------------------
A#-------------------------------
F#-------------------------------
C#-0000000000000000--------------
G#-0000000000000000--------------
C#-0000000000000000--------------

D#-------------------------------
A#-------------------------------
F#-------------------------------
C#-555555555555555---------------
G#-333333333333333---------------
C#-------------------------------

D#-------------------------------
A#-------------------------------
F#-------------------------------
C#-55555555555555----------------
G#-55555555555555----------------
C#-55555555555555----------------

D#-------------------------------
A#-------------------------------
F#-------------------------------
C#-------------------------------
G#-10-----10---------------------
C#------10----9-10-9----10-9-----

D#-------------------------------
A#-------------------------------
F#-------------------------------
C#-0000000000000000--------------
G#-0000000000000000--------------
C#-0000000000000000--------------

D#-------------------------------
A#-------------------------------
F#-------------------------------
C#-555555555555555---------------
G#-333333333333333---------------
C#-------------------------------

D#-------------------------------
A#-------------------------------
F#-------------------------------
C#-55555555555555----------------
G#-55555555555555----------------
C#-55555555555555----------------

D#-------------------------------
A#-------------------------------
F#-------------------------------
C#-7-00-9-00-10-555-000-555-10---
G#-5-00-7-00--8-555-000-555-10---
C#---00---00----555-000-555-10---

D#------------------------------
A#------------------------------
F#------------------------------
C#-0-7-x5-7-3-------------------
G#-0-5-x5-7-3-------------------
C#-0---x5-7-3-------------------

D#------------------------------
A#------------------------------
F#------------------------------
C#-0-7-x5-7-3-------------------
G#-0-5-x5-7-3-------------------
C#-0---x5-7-3-------------------

D#------------------------------
A#------------------------------
F#------------------------------
C#-0-7-x5-7-3-------------------
G#-0-5-x5-7-3-------------------
C#-0---x5-7-3-------------------

D#-------------------------------
A#-------------------------------
F#-------------------------------
C#-888x10-----------------------
G#-888x10-----------------------
C#-888x10-----------------------

D#------------------------------
A#------------------------------
F#------------------------------
C#-0-7-x5-7-3-------------------
G#-0-5-x5-7-3-------------------
C#-0---x5-7-3-------------------

D#------------------------------
A#------------------------------
F#------------------------------
C#-0-7-x5-7-3-------------------
G#-0-5-x5-7-3-------------------
C#-0---x5-7-3-------------------

D#------------------------------
A#------------------------------
F#------------------------------
C#-0-7-x5-7-3-------------------
G#-0-5-x5-7-3-------------------
C#-0---x5-7-3-------------------

D#-------------------------------
A#-------------------------------
F#-------------------------------
C#-888x10-xx5-xx5----------------
G#-888x10-xx5-xx5----------------
C#-888x10-xx5-xx5----------------


D#------------------------------------------------------
A#------------------------------------------------------
F#------------------------------------------------------
C#[-8--------0----5-7-10-8--------0----5-7-10--8-7-3-0--
G#[-8--------0----5-7-10-8--------0----5-7-10--8-7-3-0--
C#[-8--------0----5-7-10-8--------0----5-7-10--8-7-3-0--

D#------------------------------------17-15-13--15-13------------------
A#---------------------15----18-17-15---------15-----------------------
F#--10--12-14--14-12-14--14--------------------------------10-9-12-14--
C#-----------------------------------------------------9b---x-x--x--x--
G#----------------------------------------------------------8-7-10-12--
C#---------------------------------------------------------------------

D#------------------------------
A#------------------------------
F#------------------------------
C#-0-7-x5-7-3-------------------
G#-0-5-x5-7-3-------------------
C#-0---x5-7-3-------------------

D#------------------------------
A#------------------------------
F#------------------------------
C#-0-7-x5-7-3-------------------
G#-0-5-x5-7-3-------------------
C#-0---x5-7-3-------------------

D#------------------------------
A#------------------------------
F#------------------------------
C#-0-7-x5-7-3-------------------
G#-0-5-x5-7-3-------------------
C#-0---x5-7-3-------------------

D#-------------------------------
A#-------------------------------
F#-------------------------------
C#-888x10-----------------------
G#-888x10-----------------------
C#-888x10-----------------------


D#------------------------------
A#------------------------------
F#------------------------------
C#-0-7-x5-7-3-------------------
G#-0-5-x5-7-3-------------------
C#-0---x5-7-3-------------------

D#------------------------------
A#------------------------------
F#------------------------------
C#-0-7-x5-7-3-------------------
G#-0-5-x5-7-3-------------------
C#-0---x5-7-3-------------------

D#------------------------------
A#------------------------------
F#------------------------------
C#-0-7-x5-7-3-------------------
G#-0-5-x5-7-3-------------------
C#-0---x5-7-3-------------------

D#-------------------------------
A#-------------------------------
F#-------------------------------
C#-888x10-----------------------
G#-888x10-----------------------
C#-888x10-----------------------

D#------------------------------
A#------------------------------
F#------------------------------
C#-0-7-x5-7-3-------------------
G#-0-5-x5-7-3-------------------
C#-0---x5-7-3-------------------

D#------------------------------
A#------------------------------
F#------------------------------
C#-0-7-x5-7-3-------------------
G#-0-5-x5-7-3-------------------
C#-0---x5-7-3-------------------


D#------------------------------
A#------------------------------
F#------------------------------
C#-0-7-x5-7-3-------------------
G#-0-5-x5-7-3-------------------
C#-0---x5-7-3-------------------

D#-------------------------------
A#-------------------------------
F#-------------------------------
C#-888x10xx5xx5-0-----------------
G#-888x10xx5xx5-0----------------
C#-888x10xx5xx5-0----------------












Comments about this tab

U B the band - 2006-11-02

Okay you have my old version of the solo on here.......this is the up-dated one


U B the band - 2006-11-02

Eb|-----------------------------------------------------------------------|
Bb|---------------------15----18-17-15------------------------------------|
Gb|--10--12-14--14-12-14--14-----------14-12------12-10-9b~~--10-9-12-14--|
Db|------------------------------------------15-12-------------x-x--x--x--|
Ab|------------------------------------------------------------8-7-10-12--|
Db|-----------------------------------------------------------------------|


U B the band - 2006-11-02

----------------------------------------------------------------------
---------------------15----18-17-15-----------------------------------
--10--12-14--14-12-14--14-----------14-12------12-10-9b~~--10-9-12-14-
------------------------------------------15-12-------------x-x--x--x-
------------------------------------------------------------8-7-10-12-
----------------------------------------------------------------------


U B the band - 2006-11-02

Yeah there it is.......sorry


hiryuman07 - 2006-12-11

sorry the mute part should be

C#0x16 12x16 5x16
G#0 11 5
C#0 10 5


hiryuman07 - 2006-12-11






0 10 5
0 11 5
0 12 5


Add a comment/correction

Complimentary Christian Ringtones
Dadamobile and CGR have teamed up to bring your favorite Christian artists right to your phone. Sign up today and get 10 complementary ringtones!
Tab Country
Did you know CGR has a sister site w/ country guitar tabs? Well we do! Its called Tab Country. It has a great archive with a lot of country tabs.
Rockin Tabs
Are you looking for a site that has rock guitar tabs? Then Rockintabs.com is the place for you. It is a budding site with many rock guitar tabs. Submit your tab today.
Tab Gallery
Tab Gallery has a compilation of christian, rock, and country tabs all in one place. Come visit us.