Guitar Tabs
song title    band name

Join Us Today!

Don't strum alone...
be a part of the largest online Christian music community. Browse thousands of guitar tabs and chat w/ musicians like yourself.


It's Free!

This tab has been rated a 5.00 out of 5 for accuracy. (1 vote)Sorry, but you must be logged in to rate this tab.
Click here to log-in, or you can click here to register.
(Registration is free)

All songs owned by corresponding publishing company. If you make copies of any song on this website, be sure to report your usage to CCLI.
Submitted by: Thirddayrocks21

How Do You Know
Third Day
Wherever You Are
Essential
Gtr I (E A D G B E) - Mark Lee
Gtr II (E A D G B E) - Brad Avery


 Intro
 4/4
  Gtr I
  E E E E   E E E E E E E E   E E E E E  E E E E   E E E E E E E E E
|-0-------|---0---0---0---0-|-0---3------0-------|---0---0---0-----0-|
|-3s5s3s1-|---3s5-5s3-1---1-|-3s5---5s3--3s5-3s1-|---3s5-5s3-1-----1-|
|---------|-2-----------2---|--------------------|-2-----------2-2---|
|---------|-----------------|--------------------|-------------------|
|---------|-----------------|--------------------|-------------------|
|---------|-----------------|--------------------|-------------------|
|
|           E E       E E     E   E      E E       E E         E E
|---------|---0---------1---|-----3------3-3-----|---0-----------1---|
|---------|---1---------1---|-----1------3-3-----|---1-----------1---|
|---------|---2---------2---|-----0------0-0-----|---2-----------2---|
|---------|---2-------3-3---|-----2------0-0-----|---2---------3-3---|
|---------|-0---------------|-3------------------|-0-----------------|
|---------|-----------------|--------------------|-------------------|


  E E E E  E E E E
|-----3----3---3h5-|----|
|-3-5---5----5-----|----|
|------------------|----|
|------------------|----|
|------------------|----|
|------------------|----|
|
| E   E    E   E
|-----3----3---3---|----|
|-----1----3---3---|----|
|-----0----0---0---|----|
|-----2----0---0---|----|
|-3----------------|----|
|------------------|----|


 Verse
  Am                C           G            F
  E  E   E E  E     E   E E     E  E E E     E E E
|-----------------|-----------|------------|---------|
|----1--------1---|-------1---|--------0---|-----0---|
|-----------------|-----0-----|----4-5-----|---5-----|
|--------2h3------|-----------|-5----------|-4-------|
|-0---------------|-3---------|------------|---------|
|-----------------|-----------|------------|---------|


 Pre-Chorus
  Gtr II
  E E E E        E E E  E  E     E E  E E     E  E E E  E
|-------3------|--------7------|--------3---|-------------|
|-----1--------|-----------0---|------1-----|------2----3-|
|--------------|-----5---------|------------|------2----2-|
|-2h3----------|---7-----------|-2h3--------|----4---4--4-|
|--------------|-0-------------|------------|-0---------0-|
|--------------|---------------|------------|-------------|


 Chorus is 
F, C, G5, D5

this is played at the last chorus part
   E  E   E E   E  E  E  E     E   E   E   E
|---------------------------|--------------------|
|---------------------------|--------------------|
|-11-----10----10-10-10-10--|-11--11--11--11----|
|--x------------x--x--x--x--|--x---x---x---x-----|
|--9--8-----8---8--8--8--8--|--9---9---9---9----|
|---------------------------|--------------------|

Played over the intro the 2nd time
  Gtr I
  E E   E E E   E E E   E  E   E  E E E   E  E  E E E
|-----|-8-------7-----|-5---------------|-8-------7-----|
|-6s8-|-----8-----3s5-|----5--(5)h6-6s8-|-------8---8--|
|-----|---0-----------|-----------------|----0----------|
|-----|---------------|-----------------|---------------|
|-----|---------------|-----------------|---------------|
|-----|---------------|-----------------|---------------|


 Played during se 2nd Verse
  E  E  E   E   E E  E    E  E      E     E   E
|-------5---------7-----|-8--------10-|-(10)-5----|
|-8s10-----10--10---10--|---10--------|------------|
|-----------------------|-------------|------------|
|-----------------------|-------------|------------|
|-----------------------|-------------|------------|
|-----------------------|-------------|------------|


   E   E  E         E E  E  E  E
|-(5)-----5------|-------5----------|
|------8---------|--7h8-----8s10----|
|----------------|------------------|
|----------------|------------------|
|----------------|------------------|
|----------------|------------------|


 Pre-Chorus
  E  E  E  E  E  E  E  E     E  E  E  E  E
|----------3-----------3--|--------7--------|
|-------1-----------1-----|-----------------|
|-------------------------|-----------5--0--|
|-2h=3--------2h=3--------|-----7-----------|
|-------------------------|--0--------------|
|-------------------------|-----------------|


  E E  E  E  E  E  E  E    E  E  E  E  E  E
|---------3-----------3--|---------------------|
|------1-----------1-----|----------3-----3----|
|------------------------|-------2-----2--2----|
|-2h3--------2h=3--------|-3h=4-----------4----|
|------------------------|---------------------|
|------------------------|---------------------|

And Im Sure what you have all been waiting for
the Solo

  Gtr II
  E      E      E       E E  E  E  E E  E E  E E  E
|--------------------|----0-----0----0----0----0----|
|--------------------|-15---13----17---15---13---15-|
|-7b9r===7pb9r=(7)/--|------------------------------|
|--------------------|------------------------------|
|--------------------|------------------------------|
|--------------------|------------------------------|


    E  E  E E  E E  E E E  E E   E E  E E E E  E E   E  E E E E E  E  E E
|------0----0----0----0------0-|---0----0---0----0-|-0--------0-----------|
|-(15)---12---13---10---8s10---|-8---12---8---12---|-8s10s8---x-----------|
|------------------------------|-------------------|--------5-5h7-(7)p5---|
|------------------------------|-------------------|--------------------7-|
|------------------------------|-------------------|----------------------|
|------------------------------|-------------------|----------------------|


  Gtr I
                             PM         PM---|
  E  E  E  E     E   E  E    E     E  E E     E   E    E  E  E
|--------------------------|-----------------------------------|
|--------------------5-----|-------8--8------------------------|
|-5--7--5--7b9r=(7)--5-----|-7b9========7b9r=(7)--5----5h=7--5-|
|-----------------------7--|-----------------------------------|
|--------------------------|-----------------------------------|
|--------------------------|-----------------------------------|


  E E     E E     E E     E E     E E     E
|-5-------5-------5-------5-------5-------5-|
|---8b10----8b10----8b10----8b10----8b10----|
|-------------------------------------------|
|-------------------------------------------|
|-------------------------------------------|
|-------------------------------------------|


  E     E  E E E E E E     E E E E E
|-8b10r(8)p5---5---------------------|
|------------8---8-5-----------7-----|
|--------------------7b9---7-5-7-5---|
|----------------------------------7-|
|------------------------------------|
|------------------------------------|


Comments about this tab

No comments/corrections found. Add your own

Complimentary Christian Ringtones
Dadamobile and CGR have teamed up to bring your favorite Christian artists right to your phone. Sign up today and get 10 complementary ringtones!
Tab Country
Did you know CGR has a sister site w/ country guitar tabs? Well we do! Its called Tab Country. It has a great archive with a lot of country tabs.
Rockin Tabs
Are you looking for a site that has rock guitar tabs? Then Rockintabs.com is the place for you. It is a budding site with many rock guitar tabs. Submit your tab today.
Tab Gallery
Tab Gallery has a compilation of christian, rock, and country tabs all in one place. Come visit us.