Guitar Tabs
song title    band name

Join Us Today!

Don't strum alone...
be a part of the largest online Christian music community. Browse thousands of guitar tabs and chat w/ musicians like yourself.


It's Free!

This tab has been rated a 5.00 out of 5 for accuracy. (2 votes)Sorry, but you must be logged in to rate this tab.
Click here to log-in, or you can click here to register.
(Registration is free)

All songs owned by corresponding publishing company. If you make copies of any song on this website, be sure to report your usage to CCLI.
Submitted by: Thirddayrocks21




 

Keep On Shinin
Third Day
Wherever you are
essential

Gtr I (E A D G B E) - Brad Avery
Gtr II (E A D G B E) - Mark Lee

Intro & Solo 1
 4/4
  Gtr I
  E E             E     E     E       E E E             E E E E
|-----------------5--|-(5)------------------|-------------------|
|-----------------5--|-(5)-----------x-5h6--|----------5--------|
|--------------------|--------x-------x-5h7--|--------------5h7--|
|-5h7----------------|--------x--------------|------------x------|
|--------------------|-----------------------|-------------------|
|--------------------|-----------------------|-------------------|
|
| Gtr II
| E   E E  E E E  E         E E  E E  E   E     E E E E E E E
|-5--------5-5----5--|------5------5------3--|--3-------3---3----|
|-5---x-x--5-5h6--6--|------6-x--x-6--x---3--|--3-x-x-x-3-x-3----|
|-5---x-x--5-5h7--7--|------7-x--x-7--x---4--|--4-x-x-x-4-x-5----|
|-7---x-x--7-7----7--|------7-x--x-7--x---5--|--5-x-x-x-5-x-5----|
|--------------------|-----------------------|-------------------|
|--------------------|-----------------------|-------------------|


   E  E E     E E E E
|------------------------|
|------------------------|
|--5----7-----5----------|
|-----x---------5-5h7----|
|------------------------|
|------------------------|
|
|  E    E  E  E E E
|-(3)---3-----3-3--------|
|-(3)---3--0--3-3-0------|
|-(5)---5--0--4-4-0------|
|-(5)---5--0--5-5-0------|
|------------------------|
|------------------------|

Guitar 2 plays this over verse
  Am              Dm            G
  Gtr I
  E  E  E  E      E  E  E  E    E  E  E  E
|-5--5--5--5---|--5--5--5--5--|-3--3--3--3--|
|-5--5--5--5---|--6--6--6--6--|-3--3--3--3--|
|-5--5--5--5---|--7--7--7--7--|-4--4--4--4--|
|--------------|--------------|-------------|
|--------------|--------------|-------------|
|--------------|--------------|-------------|


  C     G        Am             Dm
  E  E  E  E     E  E  E  E     E  E  E  E
|-3--3--3--3--|--5--5--5--5--|--5--5--5--5--|
|-5--5--3--3--|--5--5--5--5--|--6--6--6--6--|
|-5--5--4--4--|--5--5--5--5--|--7--7--7--7--|
|-------------|--------------|--------------|
|-------------|--------------|--------------|
|-------------|--------------|--------------|


  G             C      G
  E  E  E  E    E E E  E   E
|-3--3--3--3--|-----3-------------|
|-3--3--3--3--|---3----3--(3)/----|
|-4--4--4--4h=|=5------4--(4)/----|
|-------------|-------------------|
|-------------|-------------------|
|-------------|-------------------|

Chorus
Guitar 2 lead 
  Gtr II
  E E E     E E E E E   E E E   E   E    E    E  E  E  E  E  E  E
|-8---8-------8---8---|-7---7---8--10------|-13----13----13----12-|
|---8-------8---8---8-|---8------------/10-|----10----10----10-----|
|---------------------|--------------------|-----------------------|
|---------------------|--------------------|-----------------------|
|---------------------|--------------------|-----------------------|
|---------------------|--------------------|-----------------------|
|
| E   E E E             E   E E E   E         E  E  E     E  E  E
|---------------------|--------------------|--------------0--0--0--|
|---------1-----------|---------1---0------|--------6-----5--5--5--|
|-----0---0-----------|---------2---0------|--------7-----7--7--7--|
|-----0h2-------------|--------------------|-----7-----------------|
|-3-------------------|-----2h3------------|-/5--------------------|
|---------------------|-3------------------|-----------------------|


   E E  E   E  E E  E   E E E E E E E E   E E E E    E     E
|-10---10-----10---10-|-----8---8---8---|-7---7-8---10-------|
|----8------8----8----|-8-8---8---8---8-|---8------------/10-|
|---------------------|-----------------|--------------------|
|---------------------|-----------------|--------------------|
|---------------------|-----------------|--------------------|
|---------------------|-----------------|--------------------|
|
|  E    E E E    E      E   E E E     E   E   E E E    E
|---------------------|-----------------|--------------------|
|-----------1----0----|---------1-------|---------1----0-----|
|-----------2----0----|-----0---0-----0-|---------2----0-----|
|---------------------|-----0h2---------|--------------------|
|-------2h3-----------|-3---------------|-----2h3------------|
|--3------------------|-----------------|-3------------------|


   E  E  E  E  E  E  E      E E  E E   E E  E E
|-13----13----13----12--|-10---10----10---10---|
|----10----10----10------|----8----8-----8----8-|
|------------------------|----------------------|
|------------------------|----------------------|
|------------------------|----------------------|
|------------------------|----------------------|
|
|  E     E  E  E            E E  E E   E E
|------------------------|----------------------|
|------------------------|----0-----------------|
|--------0h=2--0---------|---------0---0--------|
|--------3-----3---------|-------0-------0------|
|--------3-----3---------|----------------------|
|--1---------------------|--3-------------------|

Solo 2

  E E     E        E E  E  E E E      E    E        E E       E E
|--------------|-----------------|---------------|----------------|
|--------------|---5h6-----------|---------------|--8-------------|
|--------------|---5h7p=5----5h7-|---(7)--7b9===|====7b9r====5h7-|
|-5h7----(7)--|-----------7-----|---------------|----------------|
|--------------|-----------------|---------------|----------------|
|--------------|-----------------|---------------|----------------|

Verse 2
  E          E   E  E     E      E   E E E E
|-5-------|--5---5--5---|-3--------|-----3-3----|
|-5-------|--6---6--6---|-3--------|---3---3----|
|-5-------|--7---7--7---|-4--------|-5-----4----|
|---------|-------------|--------5-|-------5----|
|---------|-------------|----------|------------|
|---------|-------------|----------|------------|


Main Solo                                   PM------------|
  E E  E E      E          E E  E E E E    E E E E E E E E
|----------|-------------|---------------|------------------|
|-6s8--5---|-------------|---------------|------------------|
|-7s9--5-7-|---(7)------|-7s9--5-7-7p5--|---------5--------|
|----------|-------------|---------------|-----5-7---7-5-x--|
|----------|-------------|---------------|-5h7--------------|
|----------|-------------|---------------|------------------|


  E   E E    E      E E E E E   E      E E E E E E E E     E E E E E E E
|-------5---(5)--|---------8--(8)--|-------------------|---5-----------|
|-----5-----------|-3s5-6s8----------|-------------------|-5---8-6-5-----|
|-7b9-------------|------------------|---------5-----7b9-|-----------7-5-|
|-----------------|------------------|-----5-7---7-5-----|---------------|
|-----------------|------------------|-5s7---------------|---------------|
|-----------------|------------------|-------------------|---------------|


The rest just repeats , enjoy

Comments about this tab

3rd_day89 - 2007-01-26

Hey this is good stuff! However, you didnt put the chords to the chorus in here. The chorus goes something like;

C G D G
C G F G

Thats what I got from the CD, let me know what you think!
Brad
<*)))><


distantshores - 2007-03-07

Your chords for the chorus are great. However, where you have C G D G it should probably be C G Dm G (the same Dm chord used in the verses) I think it flows better with the progression of the song. Thanks!


Add a comment/correction

Complimentary Christian Ringtones
Dadamobile and CGR have teamed up to bring your favorite Christian artists right to your phone. Sign up today and get 10 complementary ringtones!
Tab Country
Did you know CGR has a sister site w/ country guitar tabs? Well we do! Its called Tab Country. It has a great archive with a lot of country tabs.
Rockin Tabs
Are you looking for a site that has rock guitar tabs? Then Rockintabs.com is the place for you. It is a budding site with many rock guitar tabs. Submit your tab today.
Tab Gallery
Tab Gallery has a compilation of christian, rock, and country tabs all in one place. Come visit us.