Guitar Tabs
song title    band name

Join Us Today!

Don't strum alone...
be a part of the largest online Christian music community. Browse thousands of guitar tabs and chat w/ musicians like yourself.


It's Free!

This tab has been rated a 5.00 out of 5 for accuracy. (4 votes)Sorry, but you must be logged in to rate this tab.
Click here to log-in, or you can click here to register.
(Registration is free)

All songs owned by corresponding publishing company. If you make copies of any song on this website, be sure to report your usage to CCLI.
Submitted by: Adam K

Skillet: The Last Night
From: Comatose
Copyright  2006 Atlantic Records
Drop B Tuning B-F#-B-E-G#-C#

palm mute=...etc

Intro
Piano
Then
C#[--------------------------------------------]
G#[--------------------------------------------]
E [--------------------------------------------]
B [-0/0/0-0/0/0--0/0/0-8/8/8-8/8/7--0/0/0/0----]
F#[-0/0/0-0/0/0--0/0/0-8/8/8-8/8/7--0/0/0/0----]x2
B [-0/0/0-0/0/0--0/0/0-8/8/8-8/8/7--0/0/0/0----]
                                    .......

Verse 1
Keyboard/Piano
Then
C#[------------------------------------------------------------------------]
G#[------------------------------------------------------------------------]
E [------------------------------------------------------------------------]
B [-7/7/5/5/10/10/8/8/7/7/5/5/3/3/2/2-7/7/5/5/10/10/8/8/7/7/5/5/3/3/5/5----]
F#[------------------------------------------------------------------------]
B [------------------------------------------------------------------------]
    ................................. ..................................

C#[------------------------------------------]
G#[------------------------------------------]
E [------------------7/7/7/7/7/7/7/7-7--5----]
B [-7/7/5/5/10/10/8/8----------------7--5----]
F#[----------------------------------5--3----]
B [------------------------------------------]
    ................................

Chorus
C#[----------------------------------]
G#[----------------------------------]
E [-------------5--------------------]
B [-8---0---3---5---8---0---10--8----]
F#[-8---0---3---3---8---0---10--8----]x2
B [-8---0---3-------8---0---10--8----]

Post-Chorus
C#[--------------------------------------------]
G#[--------------------------------------------]
E [--------------------------------------------]
B [-0/0/0-0/0/0--0/0/0-8/8/8-8/8/7--0/0/0/0----]
F#[-0/0/0-0/0/0--0/0/0-8/8/8-8/8/7--0/0/0/0----]
B [-0/0/0-0/0/0--0/0/0-8/8/8-8/8/7--0/0/0/0----]
                                    .......

Verse 2
(Same as Verse 1)

Chorus

Bridge
The other guitar plays something during the bridge but its to indistinct
for me to tab it.
C#[----------------------------------------------------]
G#[----------------------------------------------------]
E [---------------------7---5-----------------7---5----]
B [-5----8----0----5----7---5--8----0----5----7---5----]
F#[-5----8----0----5----5---3--8----0----5----5---3----]
B [-5----8----0----5-----------8----0----5-------------]

C#[------------------------------------------]
G#[------------------------------------------]
E [------------------------------------------]
B [-5/5/5-5/5/5--5/5/5-5/5/5-5/5/5--5/5/5----]
F#[-5/5/5-5/5/5--5/5/5-5/5/5-5/5/5--5/5/5----]
B [-5/5/5-5/5/5--5/5/5-5/5/5-5/5/5--5/5/5----]

C#[--------------------------------------------]
G#[--------------------------------------------]
E [--------------------------------------------]
B [-5/5/5-5/5/5--5/5/5-5/5/5/5-5/5/5/5--5/5----]
F#[-5/5/5-5/5/5--5/5/5-5/5/5/5-5/5/5/5--5/5----]
B [-5/5/5-5/5/5--5/5/5-5/5/5/5-5/5/5/5--5/5----]
Stop

Chorus 2
C#[----------------------------------]
G#[----------------------------------]
E [-------------5--------------------]
B [-8---0---3---5---8---0---10--8----]
F#[-8---0---3---3---8---0---10--8----]x3
B [-8---0---3-------8---0---10--8----]

Ending
C#[-----------]
G#[-----------]
E [-----------]
B [-5----8----]
F#[-5----8----]
B [-5----8----]
Then Piano    


Tabbed by Adam K

Comments about this tab

mr clean - 2006-10-10

ahhh... i love you


mr clean - 2006-10-10

...in a christianbrotherlysorta way....


Zions_Child16 - 2006-10-14

this song
is so....
help me find a word. i like it alot..


tl_guitarnut - 2006-10-15

Electrifying!


Zions_Child16 - 2006-10-19

that is the PERFECT word for it!!!


^dying2live^ - 2006-11-04

I agree....hate tuning it....grrrr......

peace


ejendres - 2006-12-13

this song makes me want a baritone even more


dandaman - 2008-03-06

Intro: Bm Gm F#m (x2)

You come to me with your scars on your wrist
You tell me this will be the last night feeling like this

Bm
I just came to say goodbye
Gm F#m E
I didn't want you to see me cry, I'm fine
Bm A5
But I know it's a lie

Gm Bm
This is the last night you'll spend alone
D A5
Look me in the eyes so I know you know
Gm Bm A5 Gm
I'm everywhere you want me to be
Bm
The last night you'll spend alone
D A5
I'll wrap you in my arms and I won't let go
Gm Bm A5 Gm
I'm everything You need me to be

Verse 2 intro: Bm Gm F#m

(Bass only)
Your parents say everything is your fault
But they don't know you like I know you they don't know you at all

Bm
I'm so sick of when they say
Gm F#m Em
It's just a phase, you'll be o.k. you're fine
Gm F#m
But I know it's a lie



(Chorus)
Bridge
Bm A G
The night is so long when everything's wrong
Bm A G
If you give me your hand I will help you hold on
Em
Tonight,
Em
Tonight.

{Altro:}
Gm Bm D
I won't let you say goodbye
A5 Gm Bm A5
And I'll be your reason why
Em Gm
The last night away from me

Away from me



DeathIsLife - 2008-07-18

DUDE YOUARE THE BEST I'VE BEEN LOOKING EVERYWHERE FOR THIS TAB I LOVE IT THANK YOU FOR GETTING IT RIGHT YEA


panhead9119 - 2008-09-14

This is the piano intro on guitar in dropped tuning:
C#|--13----------------13--------------------13----------------13-12-13-12-10-----------|
G#|-------10-11-10-------11-13-11-10-------10-11-10------------------------11-10--|
E |------------------------------------------------------------------------------------------------|
B |------------------------------------------------------------------------------------------------|
F#|------------------------------------------------------------------------------------------------|
B |------------------------------------------------------------------------------------------------|

This is it in standard:
E|--10-------------10-----------------10----------10-9-10-9-7--------|
B|--------7-8-7---------8-10-8-7--------7-8-7-------------------8-7--|
G|---------------------------------------------------------------------------|
D|---------------------------------------------------------------------------|
A|---------------------------------------------------------------------------|
E|---------------------------------------------------------------------------|


Add a comment/correction

Complimentary Christian Ringtones
Dadamobile and CGR have teamed up to bring your favorite Christian artists right to your phone. Sign up today and get 10 complementary ringtones!
Tab Country
Did you know CGR has a sister site w/ country guitar tabs? Well we do! Its called Tab Country. It has a great archive with a lot of country tabs.
Rockin Tabs
Are you looking for a site that has rock guitar tabs? Then Rockintabs.com is the place for you. It is a budding site with many rock guitar tabs. Submit your tab today.
Tab Gallery
Tab Gallery has a compilation of christian, rock, and country tabs all in one place. Come visit us.