Guitar Tabs
song title    band name

Join Us Today!

Don't strum alone...
be a part of the largest online Christian music community. Browse thousands of guitar tabs and chat w/ musicians like yourself.


It's Free!

This tab has been rated a 3.00 out of 5 for accuracy. (1 vote)Sorry, but you must be logged in to rate this tab.
Click here to log-in, or you can click here to register.
(Registration is free)

All songs owned by corresponding publishing company. If you make copies of any song on this website, be sure to report your usage to CCLI.
Submitted by: heisouronlyhope

K before you play this, know that im not 100% right with this..it was really really
to tab out..some parts i couldnt hear, so i had to guess at what sounded right..make any
you want. enjoy!  [:


GUITAR 1  0:00-0:24
E-------------------------------------------------------------8-------------|
B-----------------------10------8-----------------------10------------------|
G----9^~---9~---5~--------7-5----7-5----9^~---9~---5~-----7-5---7-5---------|
D---------------------------------------------------------------------------|
A---------------------------------------------------------------------------|
E---------------------------------------------------------------------------|

0:25-0:49
E---------8-----5------------8-5-----------|
B----------6-----6------------8------------|
G---9^~-----7-----7----9~---------7-5------|  (x2)
D-------------------------------------7----|
A------------------------------------------|
E------------------------------------------|

0:50-1:13    This part I know isnt right but its kinda hard to hear in the song..
E----------------------------------------------------|
B-------------8~-8~-----8~---------------------------|
G---9~-10~---------9~------10~-10~--9~---------------| x2
D----------------------------------------------------|
A----------------------------------------------------|
E----------------------------------------------------|

1:14-1:39      hard to hear again, since aaron starts to sing..
E-------------------------------------8----5---8~-------------------------8-----|
B---10-10-10-10-8-8-8-8----------------------6----6~-----------------------6----|
G-----------------------7-5-7~---7--5---5-------------9~----7-9-7~---9-9----9---|
D-------------------------------------------------------------------------------|
A-------------------------------------------------------------------------------|
E-------------------------------------------------------------------------------|
  ^those are 10s NOT 1s and 0s

1:40-2:04   still hard to hear, since aaron is still singing…
E---5---8~----------------------------8~-------------------------------------|
B-----6-----6~----------6~--6~---10-6-----6--------6-----7---5----5/10-5/10--|
G--------------9~---7-5---------------------9~-7-5------5---7-----7/12-7/12--|
D----------------------------------------------------------------------------|
A----------------------------------------------------------------------------|
E----------------------------------------------------------------------------|

Sorry guys, but I cant hear what the guitar part is from 2:05-2:30...

2:31-2:48
E---------------------------------------------------------------------|
B--------------------------------8-8-8-8-11--11-11-11-11-11-11--------|
G----10-10-10-1010-10-1010101010--------------------------------------|
D---------------------------------------------------------------------|x3
A---------------------------------------------------------------------|
E---------------------------------------------------------------------|
^10s, NOT 1s and 0s                         11s, not 1s

2:48-2:53
E--------------------------------------|
B--------------------------------------|
G—10-10-10-1010-10-101010109~---------|
D--------------------------------------|
A--------------------------------------|
E--------------------------------------|


2:54-  when spencer comes on…
E|----------------------------|
B|----------------------------|
G|----------------------------|
D|-7/3-0~7/3-0~7/3-0~7/3-0----|
A|-7/3-0~7/3-0~7/3-0~7/3-0----|
D|-7/3-0~7/3-0~7/3-0~7/3-0----|

E|-----------------------------|
B|-----------------------------|
G|-----------------------------|
D|-0-0-0~0-0-0~0-0-0~0-0-0~----|
A|-0-0-0~0-0-0~0-0-0~0-0-0~----|
D|-0-0-0~0-0-0~0-0-0~0-0-0~----|
pm . .   . .   . .   . .

All downpicking,
E|---------------------------------|
B|---------------------------------|
G|---------------------------------|
D|-7777777-5555-333-2-2-0-0-0~-----| x2
A|-7777777-5555-333-2-2-0-0-0~-----|
D|-7777777-5555-333-2-2-0-0-0~-----|
pm                      . .

a little faster…
E|-----------------------------------------------|
B|-----------------------------------------------|
G|-----------------------------------------------|
D|-7----------5-------3333-222-0-----------------|
A|-7-(X12)----5-x7----3333-222-0-x20(lots)-------|
D|-7----------5-------3333-222-0-----------------|


E|----------------------------------------|
B|----------------------------------------|
G|----------------------------------------|
D|-7-----------5------3333-222-0~---------|
A|-7-(X12)-----5-x7---3333-222-0~---------|
D|-7-----------5------3333-222-0~---------|

i hope that wasnt too much off the real thing..

Comments about this tab

No comments/corrections found. Add your own

Complimentary Christian Ringtones
Dadamobile and CGR have teamed up to bring your favorite Christian artists right to your phone. Sign up today and get 10 complementary ringtones!
Tab Country
Did you know CGR has a sister site w/ country guitar tabs? Well we do! Its called Tab Country. It has a great archive with a lot of country tabs.
Rockin Tabs
Are you looking for a site that has rock guitar tabs? Then Rockintabs.com is the place for you. It is a budding site with many rock guitar tabs. Submit your tab today.
Tab Gallery
Tab Gallery has a compilation of christian, rock, and country tabs all in one place. Come visit us.