Guitar Tabs
song title    band name

Join Us Today!

Don't strum alone...
be a part of the largest online Christian music community. Browse thousands of guitar tabs and chat w/ musicians like yourself.


It's Free!

This tab has been rated a 5.00 out of 5 for accuracy. (2 votes)Sorry, but you must be logged in to rate this tab.
Click here to log-in, or you can click here to register.
(Registration is free)

All songs owned by corresponding publishing company. If you make copies of any song on this website, be sure to report your usage to CCLI.
Submitted by: prevost3000

#----------------------------------PLEASE NOTE---------------------------------#
#This file is the authors own work and represents their interpretation of the #
#song. You may only use this file for private study, scholarship, or research. #
#------------------------------------------------------------------------------##

                                  SCARS REMAIN 
                             As recorded by Disciple
                       (From the 2006 Album SCARS REMAIN)

Words by Kevin Young

Music by Disciple
Arranged by John Flemings
Transcribed by John Flemings

Gtr I (C G C F A D) - TabIt MIDI - Track 1
Gtr II (C G C F A D) - TabIt MIDI - Track 2

  Q=85
 4/4
  Gtr I
|----------------------------------0----------------------|
|-------------------------------------------3-------------|
|----------------------------------------------------2----|
|------------0---------------0----------------------------|
|------------0---------------0----------------------------|
|--0-0----0--0-----0-0----0--0----------------------------|
|
| Gtr II
|---------------------------------------------------------|
|---------------------------------------------------------|
|-12---10------10-12---10------10-12-10----10-12-10----10-|
|-----------14--------------14----------14----------14----|
|---------------------------------------------------------|
|---------------------------------------------------------|


|----------------------------------0------------------------|
|-------------------------------------------3---------------|
|----------------------------------------------------2------|
|------------0---------------0------------------------------|
|------------0---------------0------------------------------|
|--0-0----0--0-----0-0----0--0------------------------------|
|
|-----------------------------------------------------------|
|-----------------------------------------------------------|
|-12---10------10-12---10------10-12-10----10-12-10----10---|
|-----------14--------------14----------14----------14------|
|-----------------------------------------------------------|
|-----------------------------------------------------------|


|----------------------------------1----------------------|
|-------------------------------------------1-------------|
|------------3---------------3-----------------------3----|
|------------3---------------3----------------------------|
|--1-1----1--1-----1-1----1--1----------------------------|
|---------------------------------------------------------|
|
|---------------------------------------------------------|
|---------------------------------------------------------|
|-14---12------12-14---12------12-14-12----12-14-12----12-|
|-----------14--------------14----------14----------14----|
|---------------------------------------------------------|
|---------------------------------------------------------|


|----------------------------------3----------------------|
|-------------------------------------------3-------------|
|------------5---------------5-----------------------5----|
|------------5---------------5----------------------------|
|--3-3----3--3-----3-3----3--3----------------------------|
|---------------------------------------------------------|
|
|---------------------------------------------------------|
|---------------------------------------------------------|
|-14--------------10--------------10----------10----------|
|------12---14-12------12---14-12----12-14-12----12-14-12-|
|---------------------------------------------------------|
|---------------------------------------------------------|


|----------------------------------0----------------------|
|-------------------------------------------3-------------|
|----------------------------------------------------2----|
|------------0---------------0----------------------------|
|------------0---------------0----------------------------|
|--0-0----0--0-----0-0----0--0----------------------------|
|
|---------------------------------------------------------|
|---------------------------------------------------------|
|-12---10------10-12---10------10-12-10----10-12-10----10-|
|-----------14--------------14----------14----------14----|
|---------------------------------------------------------|
|---------------------------------------------------------|


|----------------------------------0----------------------|
|-------------------------------------------3-------------|
|----------------------------------------------------2----|
|------------0---------------0----------------------------|
|------------0---------------0----------------------------|
|--0-0----0--0-----0-0----0--0----------------------------|
|
|---------------------------------------------------------|
|---------------------------------------------------------|
|-12---10------10-12---10------10-12-10----10-12-10----10-|
|-----------14--------------14----------14----------14----|
|---------------------------------------------------------|
|---------------------------------------------------------|


|----------------------------------1----------------------|
|-------------------------------------------1-------------|
|------------3---------------3-----------------------3----|
|------------3---------------3----------------------------|
|--1-1----1--1-----1-1----1--1----------------------------|
|---------------------------------------------------------|
|
|---------------------------------------------------------|
|---------------------------------------------------------|
|-14---12------12-14---12------12-14-12----12-14-12----12-|
|-----------14--------------14----------14----------14----|
|---------------------------------------------------------|
|---------------------------------------------------------|


|----------------------------------3----------------------|
|-------------------------------------------3-------------|
|------------5---------------5-----------------------5----|
|------------5---------------5----------------------------|
|--3-3----3--3-----3-3----3--3----------------------------|
|---------------------------------------------------------|
|
|---------------------------------------------------------|
|---------------------------------------------------------|
|-14--------------10--------------10----------10----------|
|------12---14-12------12---14-12----12-14-12----12-14-12-|
|---------------------------------------------------------|
|---------------------------------------------------------|


|------------*|
|------------*|
|------------*|
|-0----------*|
|-0----------*|
|-0----------*|


Tablature Legend
----------------
 h   - hammer-on
 p   - pull-off
 b   - bend
 pb  - pre-bend
 r   - bend release (if no number after the r, then release immediately)
 /  - slide into or out of (from/to "nowhere")
 s   - legato slide
 S   - shift slide
  - natural harmonic
[n]  - artificial harmonic
n(n) - tapped harmonic
 ~   - vibrato
 tr  - trill
 T   - tap
 TP  - trem. picking
 PM  - palm muting

/  - tremolo bar dip; n = amount to dip
 
  - tremolo bar down
 n/  - tremolo bar up
/n  - tremolo bar inverted dip
 =   - hold bend; also acts as connecting device for hammers/pulls
 <>  - volume swell (louder/softer)
 x   - on rhythm slash represents muted slash
 o   - on rhythm slash represents single note slash

Misc Legend
-----------
 |  - bar
||  - double bar
||o - repeat start
o|| - repeat end
*|  - double bar (ending)
 :  - bar (freetime)
 $  - Segno
 &  - Coda
Tempo markers -  = BPM(8/16=s8/s16), where s8 = swing 8ths, s16 = swing 16ths


***************************************************************************************
* Generated using Power Tab Editor by Brad Larsen - http://powertab.guitarnetwork.org *
***************************************************************************************

Comments about this tab

c4gchip - 2007-02-07

Not tryin to be picky, but where's the verse? Good job on the intro though.


DiscipleRawks - 2007-10-12

gret job i have the music video from the scars remain special edition
and i think thats how brad does it. at least, in the lead part, dont know about the gtr2 part they don't show that. Anyway, im workin on the rest of the song but its kinda hard, a bunch of pinch harminics and stuff so it
might take a while, but im tryin.


DotheDew88 - 2007-12-27

yeeaa at least we know how to play the intro ;P if any one can could some one tab the rest and not with power tab...:(


Rock 'n Christ - 2008-01-01

Why not with PowerTab? Powertab is so much more useful and easier to read. Plus, its free to download. Either way, I hope someone tabs out the full song, this tab does look pretty good though.


Add a comment/correction

Complimentary Christian Ringtones
Dadamobile and CGR have teamed up to bring your favorite Christian artists right to your phone. Sign up today and get 10 complementary ringtones!
Tab Country
Did you know CGR has a sister site w/ country guitar tabs? Well we do! Its called Tab Country. It has a great archive with a lot of country tabs.
Rockin Tabs
Are you looking for a site that has rock guitar tabs? Then Rockintabs.com is the place for you. It is a budding site with many rock guitar tabs. Submit your tab today.
Tab Gallery
Tab Gallery has a compilation of christian, rock, and country tabs all in one place. Come visit us.