Guitar Tabs
song title    band name

Join Us Today!

Don't strum alone...
be a part of the largest online Christian music community. Browse thousands of guitar tabs and chat w/ musicians like yourself.


It's Free!

This tab has been rated a 2.00 out of 5 for accuracy. (1 vote)Sorry, but you must be logged in to rate this tab.
Click here to log-in, or you can click here to register.
(Registration is free)

All songs owned by corresponding publishing company. If you make copies of any song on this website, be sure to report your usage to CCLI.
Submitted by: adsmith

#----------------------------------PLEASE NOTE--------------------------------#
#This file is the authors own work and represents their interpretation of the #
#song. You may only use this file for private study, scholarship, or research.#
#-----------------------------------------------------------------------------#
#-- File created with Instab - www.pconline.com/~smcarey/instab.html ---------#
#-----------------------------------------------------------------------------#

Author/Artist: Pillar
Title: Everything
Album: The Reckoning
Transcribed by: Aaron
Email: adavidsmith_902@hotmail.com

Use Drop C tuning this is what pillar uses throughout the whole album

----------------------------|-----------------|----------------|--------------
----------------------------|-----------------|----------------|--------------
----------------------------|-----------------|----------------|--------------
----------------------------|-----------------|----------------|--------------
---------------5---3p0---3--|--5---3p0---5---5|---5---3p0---3--|---5---3p0----
------------x---0-----5---0|0---0-----0---0--|-x---0-----5---0|-0---0-----0--
 Pickslide                                                                    

--------------------|---------------------------------------------------------
--------------------|---------------------------------------------------------
-------------5-7-5--|---------------------------------------------------------
---------5-7-------7|---------------------------------------------------------
-5---5-7------------|---------------------------------------------------------
---0----------------|---------------------------------------------------------
                                                                              
You can just play this through the verse for the live version and Ill have 
more later when I learn the whole thing you can check the special edition 
DVD for help…later

Comments about this tab

jesusfreak936 - 2006-10-27

the intro goes like this...

C/------------------------------
G/------3s5-------------3-------
C/-----------0--3h5p0-------0---

i know its right cause i have the dvd and thats how noah played it...

Govin


jesusfreak936 - 2006-10-27

sry 4get about the hammers and pulloffs on the low C string...just pick that...sry...


HolyBlood8 - 2006-11-08

really the dvd isnt really that helpful... noah only plays very small portions of the songs. i submitted the full tab of everything today and i should be up soon and i didnt use the dvd cuz im just good like that... or just to lazy to put it in but its right just the same


adsmith - 2006-11-11

Well thanks for checkin out my tab. i will say that the end part is what noah playes for the lead live.
--------------------|---------------------------------------------------------
--------------------|---------------------------------------------------------
-------------5-7-5--|---------------------------------------------------------
---------5-7-------7|---------------------------------------------------------
-5---5-7------------|---------------------------------------------------------
---0----------------|---------------------------------------------------------

This is the recorded version--------------------------------
------------------------------------------------------------
------------------------------------------------------------
------------------------------------------------------------
-3-x-3-x-3333-----------------------------------------------
------------------------------------------------------------


guitarcordfreak - 2006-11-13

This is how I play it.

-5--------3----
--0-3-5-0--0---

you can also put a little bend on the A# if you want.


jesusfreak936 - 2007-01-19

no i was talkin about the part where its just noah and he shows people how he plays it...not the concert part...but yea he does only play parts of the song but the parts he doesn't play arent hard to figure out


Add a comment/correction

Complimentary Christian Ringtones
Dadamobile and CGR have teamed up to bring your favorite Christian artists right to your phone. Sign up today and get 10 complementary ringtones!
Tab Country
Did you know CGR has a sister site w/ country guitar tabs? Well we do! Its called Tab Country. It has a great archive with a lot of country tabs.
Rockin Tabs
Are you looking for a site that has rock guitar tabs? Then Rockintabs.com is the place for you. It is a budding site with many rock guitar tabs. Submit your tab today.
Tab Gallery
Tab Gallery has a compilation of christian, rock, and country tabs all in one place. Come visit us.