Guitar Tabs
song title    band name

Join Us Today!

Don't strum alone...
be a part of the largest online Christian music community. Browse thousands of guitar tabs and chat w/ musicians like yourself.


It's Free!

This tab has been rated a 5.00 out of 5 for accuracy. (2 votes)Sorry, but you must be logged in to rate this tab.
Click here to log-in, or you can click here to register.
(Registration is free)

All songs owned by corresponding publishing company. If you make copies of any song on this website, be sure to report your usage to CCLI.
Submitted by: guittarzan

How Do You Know
Words by Mac Powell
Music by Third Day
Copyright 2005 Consuming Fire Music (ASCAP)

Tabbed By guittarzan

I saw the previous 2 tabs on here and feel that, though both are accurate,
a few minor correction should be made.  I decided to include the solo in
here as well.



Tuning: EADGBe

b-Bend
h-Hammer
s-Slide
p-Pull

Intro        Am      F              C      G               Am      F
e------------------------------------------------------------------------------
B---------------------------------------8--------------------------------------
G----7b9b7p5-----7b9--9b7--5-----5--7s9---9s7------7b9b7p5-----7b9--9b7--5-----
D------------7----------------7----------------------------7----------------7--
A------------------------------------------------------------------------------
E------------------------------------------------------------------------------

              G
e-------------------------------
B----------8---8---8---8h10-----
G---5--7s9---9---9---9----------
D-------------------------------
A-------------------------------


Chords

Intro:
Am F C G
Am F C G

Verses:
Am C Em D
Am C Em D

Pre-chorus
F    Am
F    D


Chorus:
F C G D
F C G D
F C G D
F   G


Solo:
e----10p0--8p0--12p0--10p0--8p0--10p0--7p0--8p0--5-p0--3h5p0--3-p0--7-p0--3-p0-
B------------------------------------------------------------------------------
G------------------------------------------------------------------------------
D------------------------------------------------------------------------------



e----7-p0--3h5p3p0-------------------------------------------------------------
B------------------1---3b4b3p1---------------------------------8---------------
G------------------------------2----------5--7-5-7b9b7-5---7s9---9s7-5--7b8-5-
D-------------------------------------5h7----------------7---------------------


e------------------------------------------------------------------------------
B---10-------10-------10-------10-------10-------10--13-10----10---------------
G------13b14----13b14----13b14----13b14----13b14-----------12----12-9-12-9-7---
D------------------------------------------------------------------------------


e----------------
B----------------
G----7b9b7p5-----
D------------7---


As always, suggestions welcomed.  Many of the 7b9b7 can also be 7h9p7, I just
like to bend.  I actually use the hammer/pull method on my acoustic guitar.

Comments about this tab

MichaelJoe - 2008-04-11

God bless, man! Great job. i just started this song so i'm unable to comment on the g2 stuff, but the chords sound right on. The only thing is the verses. Thinkin' the F should be used between the AM & C. Maybe just a little pickin' sound through the F.
Excellent work, brother.
later...mjoe



(HE IS)


Add a comment/correction

Complimentary Christian Ringtones
Dadamobile and CGR have teamed up to bring your favorite Christian artists right to your phone. Sign up today and get 10 complementary ringtones!
Tab Country
Did you know CGR has a sister site w/ country guitar tabs? Well we do! Its called Tab Country. It has a great archive with a lot of country tabs.
Rockin Tabs
Are you looking for a site that has rock guitar tabs? Then Rockintabs.com is the place for you. It is a budding site with many rock guitar tabs. Submit your tab today.
Tab Gallery
Tab Gallery has a compilation of christian, rock, and country tabs all in one place. Come visit us.