Guitar Tabs
song title    band name

Join Us Today!

Don't strum alone...
be a part of the largest online Christian music community. Browse thousands of guitar tabs and chat w/ musicians like yourself.


It's Free!

This tab has been rated a 5.00 out of 5 for accuracy. (3 votes)Sorry, but you must be logged in to rate this tab.
Click here to log-in, or you can click here to register.
(Registration is free)

All songs owned by corresponding publishing company. If you make copies of any song on this website, be sure to report your usage to CCLI.
Submitted by: guitarbmee

artist: falling up
album: exit lights
song: islander

GREAT song. great, great song. it grew on me during the first few days of picking up the disc. 
its sweet. 
heres what i got out of the song...

no tuning is really *required* but my tab is for drop-d tuning. its easier on some parts.

intro/verse (electric clean with some delay im pretty sure)
just hold the same note with some varied picking patterns... the high e string
e|7-7-7-7-7-7-7-7-7-7-7-7-7-7-7-7-etc

intro and verse (acoustic/classical guitar)
e|----------------------------------
b|-----4--5--4----------------------
g|--6-----------4----2--4-4---4--6-6
d|-6--6--6--6--6----2--2--2--4--4--4
a|4--4--4--4--4--4-0--0--0--2--2--2-
d|-----------------------------------

verse (electric clean with chorus and delay i think)
e|-----------------------------------
b|-----------------------------------
g|13---------------9---------11------
d|11---------------7---------9-------
a|11---------------7---------9-------
d|11---------------7---------9-------

chorus (all distortion baby! haha)
e|-------------------------------------------------------------------
b|-------------------------------------------------------------------
g|2-2-2-2-2-2-2-2-6-6-6-6-6-6-6-6-1111111111111116-6-6-6-4-4-4-4-
d|2-2-2-2-2-2-2-2-6-6-6-6-6-6-6-6-1111111111111116-6-6-6-4-4-4-4-
a|0-0-0-0-0-0-0-0-4-4-4-4-4-4-4-4-9-9-9-9-9-9-9-9-4-4-4-4-2-2-2-2-
d|-------------------------------------------------------------------

post-chorus (clean electric with delay except for the first chord... that has the chorus settings)
e|----------------9--------9------
b|--------------------9-------9---
g|2-------------------------------
d|2-------------------------------
a|0-------------------------------
d|--------------------------------

bridge:
just play the first section of tab over and over... everything else seems to be all kinds of
synths and such.

for the outro, the guitar just improvises the whole time... so its tough to catch it all since its
REALLY in the background. i started to get some of it but i decided it wasnt worth it.

so there you go. Njoy

Comments about this tab

guitarbmee - 2006-10-05

well the alignment of the very end of the chorus got kinda weirded out but its fine. nothing major. its this awesome mac i have... uses a different font no matter what... so its hard for me to line it up right... cause it lines up differently with this font. oh well.


sac346 - 2006-10-19

Wow! Definantly my favoret song on there new album!


Add a comment/correction

Complimentary Christian Ringtones
Dadamobile and CGR have teamed up to bring your favorite Christian artists right to your phone. Sign up today and get 10 complementary ringtones!
Tab Country
Did you know CGR has a sister site w/ country guitar tabs? Well we do! Its called Tab Country. It has a great archive with a lot of country tabs.
Rockin Tabs
Are you looking for a site that has rock guitar tabs? Then Rockintabs.com is the place for you. It is a budding site with many rock guitar tabs. Submit your tab today.
Tab Gallery
Tab Gallery has a compilation of christian, rock, and country tabs all in one place. Come visit us.