Guitar Tabs
song title    band name

Join Us Today!

Don't strum alone...
be a part of the largest online Christian music community. Browse thousands of guitar tabs and chat w/ musicians like yourself.


It's Free!

This tab has not yet been rated for accuracy.Sorry, but you must be logged in to rate this tab.
Click here to log-in, or you can click here to register.
(Registration is free)

All songs owned by corresponding publishing company. If you make copies of any song on this website, be sure to report your usage to CCLI.
Submitted by: bspaulding

Let God Arise
Chris Tomlin

(Capo 2; All Notes Relative)

Intro
(2x Acoustic; 4x Electric)
E |-----------------------------------------------
B |-----------------------------------------------
G |-----------------------------------------------
D |---------7-7-7-7------------4-4-4-4------------
A |-0-0-0------------0-0-0-0----------------------
E |-----------------------------------------------


Pre-Chorus
E |------------------------------------------------------------------
B |------------------------------------------------------------------
G |------------------------------------------------------------------
D |------7---7-------------7---7-------------9---9------7-6-4--------
A |-5-5---5---5-5-5-4-4---4---4-4-4-7-7---7---7-7---------7~~--------
E |------------------------------------------------------------------


E |-----------------------------------------------------------------------
B |-----------------------------------------------------------------------
G |-----------------------------------------------------------------------
D |------7---7-------------7---7-------------9---9--------9-9-9-9-9-9-9-9-
A |-5-5---5---5-5-5-4-4---4---4-4-4-7-7---7---7-7-7-7-7-7-7-7-7-7-7-------
E |-----------------------------------------------------------------------


Post-Chorus Riff
E |-----------------------------------------------------------------------
B |-8-8-7-8-8-7-8-7-8-7---------------------------------------------------
G |--------------------------9-7-7-7-7-7----------------------------------
D |-----------------------------------------------------------------------
A |-----------------------------------------------------------------------
E |-----------------------------------------------------------------------

Comments about this tab

bspaulding - 2006-10-05

Listening more carefully, there are actually two parts to the Post-Chorus Riff

Post-Chorus Riff
E |-----------------------------------------------------------------------
B |-8-8-7-8-8-7-8-7-8-7-------------8-8-7-8-8-7-8-8-8-7------------------
G |---------------------9-7-7-7-7-7---------------------9-7-7-7-7-7-
D |-----------------------------------------------------------------------
A |-----------------------------------------------------------------------
E |-----------------------------------------------------------------------


takingback143 - 2008-03-15

actually, the above riff is correct, they are both right because you are playing harmonics, but if you want a better detailed way to play click on this link, its Daniel from chris tomlin showing you how to play it,http://www.youtube.com/watch?v=sQmzpVXY9SI


Add a comment/correction

Complimentary Christian Ringtones
Dadamobile and CGR have teamed up to bring your favorite Christian artists right to your phone. Sign up today and get 10 complementary ringtones!
Tab Country
Did you know CGR has a sister site w/ country guitar tabs? Well we do! Its called Tab Country. It has a great archive with a lot of country tabs.
Rockin Tabs
Are you looking for a site that has rock guitar tabs? Then Rockintabs.com is the place for you. It is a budding site with many rock guitar tabs. Submit your tab today.
Tab Gallery
Tab Gallery has a compilation of christian, rock, and country tabs all in one place. Come visit us.