Guitar Tabs
song title    band name

Join Us Today!

Don't strum alone...
be a part of the largest online Christian music community. Browse thousands of guitar tabs and chat w/ musicians like yourself.


It's Free!

This tab has been rated a 5.00 out of 5 for accuracy. (2 votes)Sorry, but you must be logged in to rate this tab.
Click here to log-in, or you can click here to register.
(Registration is free)

All songs owned by corresponding publishing company. If you make copies of any song on this website, be sure to report your usage to CCLI.
Submitted by: Thirddayrocks21

Mountain of God

Here you go 100% correct, great worship song

Intro
Gtr 1 Dsus2, A, Em7, G5, Asus4
E|-----0-----0---3---3---0-------
B|-----3-----2---3---3---3-------
G|-----2-----2---0---0---2-------
D|-----0-----2---2---0---2-------
A|-----0-----0---2---x---0-------
E|---------------0---3-----------

Gtr 2
E|--------------------------|-----------------------|--3----------5-----
B|--------------------------|---------------------3-|--3----------5-----
G|-7---7--7-/9-9/11(11)6-|----6h7(7)-----------|--4----------6-----
D|-0---0--0-----0-----------|----0-----------4-h5---|-------------7--x2-
A|--------------------------|-----------------------|-------------------
E|--------------------------|-----------------------|-------------------
Then gt1 plays
E|--------------------------|-----------------------|-------------------
B|----------7---7h8---7-----|---3---2------------0--|------0--3---3-----
G|-7--7-----7---7---------2-|---2---2------------0--|------0--2---2-----
D|-0-----0----------------2-|------------------2----|----0--------------
A|------------------------0-|-----------------------|-----------2-------
E|--------------------------|----------------0------|--3----------------


Pre-chorus
Gtr 1
E|-------------------------|----------------------------
B|------1-----------3------|---------2-----3-----2------
G|---------0-----------0---|----------------------------
D|---2-----------0---------|-----2----------------------
A|-3----------2------------|--0---------0-----0---------
E|-------------------------|----------------------------
 |                                                     |              
E|--8----------------------|--5-------------------------
B|--8---------8------------|--5-------------------------
G|--9---------7------------|--6-------------------------
D|-10---------9------------|--7-------------------------
A|-------------------------|----------------------------
E|-------------------------|----------------------------



E|-------------------------|----------------------------
B|------1-----------3------|---------2------2-----------
G|---------0-----------0---|------------2---2-----------
D|---2-----------0---------|-----2----------2-----------
A|-3----------2------------|--0-------------0-----------
E|-------------------------|----------------------------
 |                                                     |              
E|--8----------------------|--5------7------5-----------
B|--8---------8------------|--5------5------5-----------
G|--9---------7------------|--6-------------6-----------
D|-10---------9------------|----------------------------
A|-------------------------|----------------------------
E|-------------------------|----------------------------

Chorus Dsus2, Asus4, Em7, G5, Asus4

Verse 2
E|--------------------|-----------------------|----------|--------------
B|-7--7--7--7h8-p7---|-2-----2-----2-2h3-2--|----------|------0-3---2-
G|-7--7--7--7---------|-2-----2-----2--2---2--|-------0--|------0-2---2-
D|-0--0--0--0---------|----0-----0------------|----2-----|---0------2---
A|--------------------|-----------------------|----------|--------------
E|--------------------|-----------------------|-0--------|-3------------

Same Pre-chorus

Bridge
  Fsus2                          D
E|--3----3h5-----3-----3h5----|--2-----2------2-h3--p2-|
B|----------------------------|------------------------|
G|----------------------------|------------------------|
D|----3-------3-----3-------3-|-----0------0-----------|
A|----------------------------|------------------------|
E|----------------------------|------------------------|
  Fsus2                          D
E|--3----3h5--------3h5---2---|-------2h3p0------------|
B|----------------------------|---------------3p2p0----|
G|----------------------------|----------------------0-|
D|-----3------3---------------|-0----------------------|
A|----------------------------|-0----------------------|
E|----------------------------|------------------------|
  Bm                            E7          G5             Asus4
E|---------2-----------2----|--------2--0--|-----3-----3-|-------------0
B|------3-----------3-------|-----3--------|---3-----3---|-----3--3----
G|---4---------4----------2-|--1-----------|-0-----0-----|-2-----2---2--
D|--------------------------|--------------|-------------|----2---------
A|--------------------------|--------------|-------------|--------------
E|--------------------------|--------------|-------------|--------------

Outro Chorus is just
    E5   Bsus4,  F#m11,  Asus2, Bsus4,  E5,  Bsus4
E|--0----0------0-------0-------0------0-----0----
B|--0----0------0-------0-------0------0-----0----
G|--9----4------2-------2-------4------9-----4----
D|--9----4------x-------2-------4------9-----4----
A|--7----2------4-------0-------2------7-----2----
E|--0-----------2----------------------0----------


Comments about this tab

h2odog - 2007-01-06

To my ear, this is the most accurate of the versions posted. Excellent job, thanks for sharing.


dg51 - 2007-04-13

I agree this posting is dead on. Good job. Are you in Third Day?


Add a comment/correction

Complimentary Christian Ringtones
Dadamobile and CGR have teamed up to bring your favorite Christian artists right to your phone. Sign up today and get 10 complementary ringtones!
Tab Country
Did you know CGR has a sister site w/ country guitar tabs? Well we do! Its called Tab Country. It has a great archive with a lot of country tabs.
Rockin Tabs
Are you looking for a site that has rock guitar tabs? Then Rockintabs.com is the place for you. It is a budding site with many rock guitar tabs. Submit your tab today.
Tab Gallery
Tab Gallery has a compilation of christian, rock, and country tabs all in one place. Come visit us.