Guitar Tabs
song title    band name

Join Us Today!

Don't strum alone...
be a part of the largest online Christian music community. Browse thousands of guitar tabs and chat w/ musicians like yourself.


It's Free!

This tab has not yet been rated for accuracy.Sorry, but you must be logged in to rate this tab.
Click here to log-in, or you can click here to register.
(Registration is free)

All songs owned by corresponding publishing company. If you make copies of any song on this website, be sure to report your usage to CCLI.
Submitted by: guitarcrazy18

Beautiful
Shawn McDonald
Simply Nothing
2004 Sparrow Records

I love this song, and I listen to it all of the time. Try the capo on the 5th fret.
I think that this is right, but here goes the tab:
Verse and Intro:
-------0-------------------------------0----------------------------
-------1-----1--------------1----------1------1----------------1----
----0-----0--------0-----0----------0------0--------0-------0-------
--------------------------------------------------------------------
-3--------------3-----2----------0---------------0-------2----------
--------------------------------------------------------------------

Repeat this as many times as the verse goes.

Chorus:
--------------------------------------------------------------------------------------
--------------------------------------------------1-----------1--------1-----------1--
-------0-----------0---------0-----------0--------2-----------2--------0-----------0--
-------3-----------3---------5-----------5-----2-----2-----2--------2-----2-----2-----
----3-----3-----3---------5-----5-----5-----0-----------0--------3-----------3--------
-1-----------1---------3-----------3--------------------------------------------------

Repeat this completely twice for chorus and then at the end of the chorus to transition
back to the verse play this:
--------------------------------------------
--------------------------------------------
-------0-----------0---------0-----------0--
-------3-----------3---------5-----------5--
----3-----3-----3---------5-----5------5----
-1-----------1---------3------------3-------

This is it! After that go back to the verse. I know that it may not be exact but I 
think that it is very close. Have fun with it and give God the glory.

Blessed Assurance, Jesus is Mine,
Charity

Comments about this tab

No comments/corrections found. Add your own

Complimentary Christian Ringtones
Dadamobile and CGR have teamed up to bring your favorite Christian artists right to your phone. Sign up today and get 10 complementary ringtones!
Tab Country
Did you know CGR has a sister site w/ country guitar tabs? Well we do! Its called Tab Country. It has a great archive with a lot of country tabs.
Rockin Tabs
Are you looking for a site that has rock guitar tabs? Then Rockintabs.com is the place for you. It is a budding site with many rock guitar tabs. Submit your tab today.
Tab Gallery
Tab Gallery has a compilation of christian, rock, and country tabs all in one place. Come visit us.