Guitar Tabs
song title    band name

Join Us Today!

Don't strum alone...
be a part of the largest online Christian music community. Browse thousands of guitar tabs and chat w/ musicians like yourself.


It's Free!

This tab has been rated a 4.20 out of 5 for accuracy. (5 votes)Sorry, but you must be logged in to rate this tab.
Click here to log-in, or you can click here to register.
(Registration is free)

All songs owned by corresponding publishing company. If you make copies of any song on this website, be sure to report your usage to CCLI.
Submitted by: U B the band

kutless
Shut Me Out
tabbed by U B the band
tuning-Db Ab Db Gb Bb Eb

I saw the other tabs(all of them were wrong somewhere),so I fixed them.

Intro Guitar one:
Eb|-------------|  |-----xx----|
Bb|-------------|  |-----xx----|
Gb|----7--------|  |-3333xx5--|
Db|--0-7-0-5/7-3|  |-3333xx5--|
Ab|--0-5-0-5/7-3|  |-1111xx3--|
Db|--0---0-5/7-3|x3|-----xx----|

Eb|-------------|  |-----xx----|
Bb|-------------|  |-----xx----|
Gb|----7--------|  |-3333xx5--|
Db|--0-7-0-5/7-3|  |-3333xx5--|
Ab|--0-5-0-5/7-3|  |-1111xx3--|
Db|--0---0-5/7-3|x3|-----xx----|

Verse one: palm muted
Eb|--------------------------------|x2
Bb|--------------------------------|
Gb|--------------------------------|
Db|--0(x16)-10(x16)-5(x16)-0(x16)--|
Ab|--0------10------5------0-------|
Db|--0------10------5------0-------|

guitar two:
Eb|------------------------------|
Bb|--10--------10----------------|
Gb|-------9-10---9-10-9--9-10-9--|
Db|------------------------------|
Ab|------------------------------|
Db|------------------------------|

pre-chorus Guitar one:
Eb|---------------------------------------------------|
Bb|---------------------------------------------------|
Gb|--7-----9-----10-10--------------------------------|
Db|--7-5-0-9-5-0-10-10----5-5-5---0-0-0---5-5-5---10--|
Ab|--5-5-0-7-5-0-8--8-----5-5-5---0-0-0---5-5-5---10--|
Db|----5-0---5-0----------5-5-5---0-0-0---5-5-5---10--|

Chorus one:
Eb|-------------|  |-----xx----|
Bb|-------------|  |-----xx----|
Gb|----7--------|  |-3333xx5--|
Db|--0-7-0-5/7-3|  |-3333xx5--|
Ab|--0-5-0-5/7-3|  |-1111xx3--|
Db|--0---0-5/7-3|x3|-----xx----|

Eb|-------------|  |-----xx----|
Bb|-------------|  |-----xx----|
Gb|----7--------|  |-3333xx5--|
Db|--0-7-0-5/7-3|  |-3333xx5--|
Ab|--0-5-0-5/7-3|  |-1111xx3--|
Db|--0---0-5/7-3|x3|-----xx----|

Verse one: palm muted
Eb|--------------------------------|x2
Bb|--------------------------------|
Gb|--------------------------------|
Db|--0(x16)-10(x16)-5(x16)-0(x16)--|
Ab|--0------10------5------0-------|
Db|--0------10------5------0-------|

guitar two:
Eb|------------------------------------------------------------------|
Bb|--10--------10----------------10-----------10---------------------|
Gb|-------9-10---9-10-9--9-10-9-------7--9/10---7-9-10-9--9-10-9--7--|
Db|------------------------------------------------------------------|
Ab|------------------------------------------------------------------|
Db|------------------------------------------------------------------|

pre-chorus Guitar one:
Eb|--------------------------------------------------|
Bb|--------------------------------------------------|
Gb|--7-----9-----10-10-------------------------------|
Db|--7-5-0-9-5-0-10-10----5-5-5---0-0-0---5-5-5--10--|
Ab|--5-5-0-7-5-0-8--8-----5-5-5---0-0-0---5-5-5--10--|
Db|----5-0---5-0----------5-5-5---0-0-0---5-5-5--10--|

Chorus two:
Eb|-------------|  |-----xx----|
Bb|-------------|  |-----xx----|
Gb|----7--------|  |-3333xx5--|
Db|--0-7-0-5/7-3|  |-3333xx5--|
Ab|--0-5-0-5/7-3|  |-1111xx3--|
Db|--0---0-5/7-3|x3|-----xx----|

Eb|-------------|  |-----xx--xx--xx----|
Bb|-------------|  |-----xx--xx--xx----|
Gb|----7--------|  |-3333xx5xx5xx5--|
Db|--0-7-0-5/7-3|  |-3333xx5xx5xx5--|
Ab|--0-5-0-5/7-3|  |-1111xx3xx5xx5--|
Db|--0---0-5/7-3|x3|-----xx--xx--xx----|

Solo Guitar two:
Eb|-----------------------------------------------------------------------|
Bb|---------------------15----18-17-15------------------------------------|
Gb|--10--12-14--14-12-14--14-----------14-12------12-10-9b~~--10-9-12-14--|
Db|------------------------------------------15-12-------------x-x--x--x--|
Ab|------------------------------------------------------------8-7-10-12--|
Db|-----------------------------------------------------------------------|

Guitar one:
Eb|---------------------------------------------------------|
Bb|---------------------------------------------------------|
Gb|---------------------------------------------------------|
Db|--8(x16)---0(x8)---5-7-10--8(x16)---0---5-7-10--8-7-3-0--|
Ab|--8--------0-------5-7-10--8--------0---5-7-10--8-7-3-0--|
Db|--8--------0-------5-7-10--8--------0---5-7-10--8-7-3-0--|

Chorus one:
Eb|-------------|  |-----xx----|
Bb|-------------|  |-----xx----|
Gb|----7--------|  |-3333xx5--|
Db|--0-7-0-5/7-3|  |-3333xx5--|
Ab|--0-5-0-5/7-3|  |-1111xx3--|
Db|--0---0-5/7-3|x3|-----xx----|

Eb|-------------|  |-----xx----|
Bb|-------------|  |-----xx----|
Gb|----7--------|  |-3333xx5--|
Db|--0-7-0-5/7-3|  |-3333xx5--|
Ab|--0-5-0-5/7-3|  |-1111xx3--|
Db|--0---0-5/7-3|x3|-----xx----|

Chorus two:
Eb|-------------|  |-----xx----|
Bb|-------------|  |-----xx----|
Gb|----7--------|  |-3333xx5--|
Db|--0-7-0-5/7-3|  |-3333xx5--|
Ab|--0-5-0-5/7-3|  |-1111xx3--|
Db|--0---0-5/7-3|x3|-----xx----|

Eb|-------------|  |-----xx--xx--xx----|
Bb|-------------|  |-----xx--xx--xx----|
Gb|----7--------|  |-3333xx5xx5xx5--|
Db|--0-7-0-5/7-3|  |-3333xx5xx5xx5--|
Ab|--0-5-0-5/7-3|  |-1111xx3xx5xx5--|
Db|--0---0-5/7-3|x3|-----xx--xx--xx----|

end on
Eb|------------|
Bb|------------|
Gb|------------|
Db|-0-let ring-|
Ab|-0----------|
Db|-0----------|

Comments about this tab

U B the band - 2006-10-15

That was really weird.....'cause when I sent this tab the bars were all lined up perfect but oh well it could be worse. -U B the band


guitarcordfreak - 2006-12-14

all of the main riffs should be like this

C#--0-*12*--5-7-3--------------------
G#--0-*12*--5-7-3--------------------
C#--0-*12*--5-7-3--------------------

*=corrected


hiryuman07 - 2007-03-21

Dude the chorus should be


Eb|-------------| |------xx-xx---xx----|
Bb|-------------| |------xx-xx---xx----|
Gb|----7--------| |------xx-xx---xx--|
Db|--0-7-0-5/7-3| |-8888-xx10xx10xx10--|
Ab|--0-5-0-5/7-3| |-8888-xx10xx10xx10--|
Db|--0---0-5/7-3|x3|-8888-xx10xx10xx10--|

thats how they play live


U B the band - 2007-03-22

Verse two correction.......sorry.
Eb|-------------------------------------------------------------------|
Bb|--10--------10----------------10-----------10----------------------|
Gb|-------9-10---9-10-9--9-10-9-------7--9/10---7-9-10-9---9-10-9--7--|
Db|------------------------------------------------------7------------|
Ab|-------------------------------------------------------------------|
Db|-------------------------------------------------------------------|
Yeah sorry.............I forgot the 7 right--------------^ there. Lol!


U B the band - 2007-03-23

I can't edit tabs on this site like I do on ultimate-guitar.com but I fixed that chorus awhile back. So if you want to you can see it there. Peace Out!


Jesusfreak_1617 - 2007-04-14

Hey, isn't Drop Db and Drop C# the exact same thing?


U B the band - 2007-04-27

Yeah it's" (Db Ab Db Gb Bb Eb) or (C# G# C# F# A# D#). Same thing.


ryan_guitarist - 2008-01-13

I think there's one note wrong in the solo. Is it logical to do it this way?
Solo Guitar two:
Eb|-----------------------------------------------------------------------|
Bb|---------------------------18-17-15------------------------------------|
Gb|--10--12-14--14-12-14--14-----------14-12------12-10-9b~~--10-9-12-14--|
Db|---------------------12-------------------15-12-------------x-x--x--x--|
Ab|------------------------------------------------------------8-7-10-12--|
Db|-----------------------------------------------------------------------|

I thought they went down instead of up in the solo. Anyway, let me know if I'm wrong. Thanks.


ryan_guitarist - 2008-01-13

Ugh. It didn't line up right. Any way, instead of going up to 15 on the Bb, go down to 12 on the Db. That seemed to sound better.


StellarFreak - 2008-01-16

GOD LOVES KUTLESS.good tab didn't sound right at a couple spots it's still really good.


Add a comment/correction

Complimentary Christian Ringtones
Dadamobile and CGR have teamed up to bring your favorite Christian artists right to your phone. Sign up today and get 10 complementary ringtones!
Tab Country
Did you know CGR has a sister site w/ country guitar tabs? Well we do! Its called Tab Country. It has a great archive with a lot of country tabs.
Rockin Tabs
Are you looking for a site that has rock guitar tabs? Then Rockintabs.com is the place for you. It is a budding site with many rock guitar tabs. Submit your tab today.
Tab Gallery
Tab Gallery has a compilation of christian, rock, and country tabs all in one place. Come visit us.