Guitar Tabs
song title    band name

Join Us Today!

Don't strum alone...
be a part of the largest online Christian music community. Browse thousands of guitar tabs and chat w/ musicians like yourself.


It's Free!

This tab has been rated a 4.25 out of 5 for accuracy. (4 votes)Sorry, but you must be logged in to rate this tab.
Click here to log-in, or you can click here to register.
(Registration is free)

All songs owned by corresponding publishing company. If you make copies of any song on this website, be sure to report your usage to CCLI.
Submitted by: Cheese_Monkey

Song: Moonlit
Artist: Falling Up
CD: Dawn Escapes

Hey everyone its Cheese Monkey!  I love falling up, but nobodys got the intro
tab for moonlit quite complete, it was really missing something so ill add iy
for you all!

the rest of the song seems to be accurate, but heres JUST  the intro!

two guitars, both tuned to drop D!

Guitar 1 INTRO:

e------------------------------------
B-10-8-------8----------------10-8---
G------9-------9--10-10-10-10------9-
D--------0---------------------------
A-----------------8--8--8--8---------
D------------------------------------

Guitar 2 INTRO:

e-------------------------------
B-6-5--------5------------6-5---
G-----5--------5--------------5-
D-------7----------0-3-3-3------
A-------------------------------
D-------------------------------

Bass: (watch out this is tricky)

G----------------
D----------------
A----------------
D-0---0---0---0--

and theres your intro!  enjoy it folks, you know the drill! rate me, comment,
and keep on rocking for Christ!

Tim (aka Cheese Monkey)

Comments about this tab

tl_guitarnut - 2006-09-16

Nice job man, I found this quite helful.


sac346 - 2006-10-04

Good job on the guitar, but I'm also a bass player and hav been playing far a year, maybe more so the bass actually go's like this.

Drop D (duh!)
g[---------------------]
d[-------------3333333-]
a[-----0s5-------------](4X)
d[-0-0-----0-0---------]


Cheese_Monkey - 2006-11-19

that sounds awsome! sweet correction!


Add a comment/correction

Complimentary Christian Ringtones
Dadamobile and CGR have teamed up to bring your favorite Christian artists right to your phone. Sign up today and get 10 complementary ringtones!
Tab Country
Did you know CGR has a sister site w/ country guitar tabs? Well we do! Its called Tab Country. It has a great archive with a lot of country tabs.
Rockin Tabs
Are you looking for a site that has rock guitar tabs? Then Rockintabs.com is the place for you. It is a budding site with many rock guitar tabs. Submit your tab today.
Tab Gallery
Tab Gallery has a compilation of christian, rock, and country tabs all in one place. Come visit us.