Guitar Tabs
song title    band name

Join Us Today!

Don't strum alone...
be a part of the largest online Christian music community. Browse thousands of guitar tabs and chat w/ musicians like yourself.


It's Free!

This tab has not yet been rated for accuracy.Sorry, but you must be logged in to rate this tab.
Click here to log-in, or you can click here to register.
(Registration is free)

All songs owned by corresponding publishing company. If you make copies of any song on this website, be sure to report your usage to CCLI.
Submitted by: lctp2022

This song is in regular Eb tuning, so Eb Ab Db Gb Bb Eb

Acoustic part: these chords are arbitrary so feel free to add your own notes
     eadgbe
Em - 075000
F# - 097x00
C  - 032000
D  - 054000

The progression is Em F# C D throughout the song but the bass plays E F# G A
(In opening of song slide from C chord up to the E)


Electric Parts:

Left Ear
----------------------------------------------
----8----8----8----8----8----8----8--10--8----
-11---11---11---11---11---11---11-------------
----------------------------------------------
----------------------------------------------
----------------------------------------------

Right Ear (pattern changes in song so just listen)
----7----7---7---7----7----7----7--8--7----then ----7----7--8--7----7  
-10---10---8---8---10---10---10-----------later -10---10---------10-   (x2)
-------------------------------------------     --------------------
-------------------------------------------     --------------------
-------------------------------------------     --------------------
-------------------------------------------     --------------------

Right Ear (Clean guitar with compression)
this part is hard to pick out but you can hear it compliment the acoustic

play each chord 8 times like acoustic part
--------------------------------------
--------------------------------------
--------------------------------------
-5--------7--------2--------4---------
-7--(x8)--5--(x8)--3--(x8)--5--(x8)---
-0------------------------------------


Lead Part - tremolo picking! pan effect and not sure what else

------------------------12---- only goes to high E once,
-----10---12---15-(x2)-------- repeat the first 4 notes again after
-9----------------------------
------------------------------
------------------------------
------------------------------

Comments about this tab

No comments/corrections found. Add your own

Complimentary Christian Ringtones
Dadamobile and CGR have teamed up to bring your favorite Christian artists right to your phone. Sign up today and get 10 complementary ringtones!
Tab Country
Did you know CGR has a sister site w/ country guitar tabs? Well we do! Its called Tab Country. It has a great archive with a lot of country tabs.
Rockin Tabs
Are you looking for a site that has rock guitar tabs? Then Rockintabs.com is the place for you. It is a budding site with many rock guitar tabs. Submit your tab today.
Tab Gallery
Tab Gallery has a compilation of christian, rock, and country tabs all in one place. Come visit us.