Guitar Tabs
song title    band name

Join Us Today!

Don't strum alone...
be a part of the largest online Christian music community. Browse thousands of guitar tabs and chat w/ musicians like yourself.


It's Free!

This tab has been rated a 4.00 out of 5 for accuracy. (2 votes)Sorry, but you must be logged in to rate this tab.
Click here to log-in, or you can click here to register.
(Registration is free)

All songs owned by corresponding publishing company. If you make copies of any song on this website, be sure to report your usage to CCLI.
Submitted by: jonmac

I Need You to Love Me
Words & Music by Barlow Girl

Capo on 1st

INTRO: D  G  D  G (Fingerpicked)

VERSE 1
D  G  D  G  
D  G  D  G
Bm G  Bm G

CHORUS
D  G  D  G
Bm A  Em - G  D 


VERSE 2
D  G  D  G  
D  G  D  G
Bm G  Bm G

REPEAT CHORUS

BRIDGE
Bm  G  D  A/C# 
Bm  G  D  A/C# 
Bm  G  D  A/C#  G - A


CHORUS
Same chords as previous chorus, but they do some different repeats.  
I think you will be able to get it when you listen to it.

Ending (Oh yeah part)

D G  (4x)
D G  Bm   

End on G


I saw another tab, but if you use a capo, its a lot easier for the average
person to play.  I also think the key of D sounds better on a guitar than
the other tab (no offense!).  

CHORDS
D     XX0232
G     320033
Bm    X24432
A2    X02200 (or straight A is X02220, but i play all As as A2; sounds better)
Em    022000 (or G/Em 022033)
A/C#  X42200 (you can also play an A2 or A)

jm



==============================================================
==============================================================
==============================================================
I Need You to Love Me
Words & Music by Barlow Girl
Cd: Another Journal Entry
========================================================
This is the intro tab to I NEED YOU TO LOVE ME 
I think I got it rite 



(Abm7)
e------------2----------------2-------------2---]
B-----0---------------0--------------0----------]
G--1---------------1--------------1-------------]
D--------1---------------1---------------1------]      
A-----------------------------------------------]
E-----------------------------------------------]


(Eb)
e----------3------------3------------3---]
B-----4-------------4------------4-------]
G--2-------------2------------2----------]          
D--------1-------------1------------1----]
A----------------------------------------]
E----------------------------------------]






I hope it helps you 
God bless
-------------------ZBoy out----------------

Comments about this tab

monkeysmile - 2006-11-23

I think the intro sounds better this way:
E----------- E------------
B-------5--- A-------5----
G----4------ x4 G----4------- x 4
D--6---6---- D--7---7-----
A----------- A------------
E----------- E------------


monkeysmile - 2006-11-23

Dangit...um,just play the first part x4 and the change the D string to the 7th fret and repeat.


0neguitar4God - 2008-03-19

nice job with these tabs


Add a comment/correction

Complimentary Christian Ringtones
Dadamobile and CGR have teamed up to bring your favorite Christian artists right to your phone. Sign up today and get 10 complementary ringtones!
Tab Country
Did you know CGR has a sister site w/ country guitar tabs? Well we do! Its called Tab Country. It has a great archive with a lot of country tabs.
Rockin Tabs
Are you looking for a site that has rock guitar tabs? Then Rockintabs.com is the place for you. It is a budding site with many rock guitar tabs. Submit your tab today.
Tab Gallery
Tab Gallery has a compilation of christian, rock, and country tabs all in one place. Come visit us.