Guitar Tabs
song title    band name

Join Us Today!

Don't strum alone...
be a part of the largest online Christian music community. Browse thousands of guitar tabs and chat w/ musicians like yourself.


It's Free!

This tab has been rated a 4.00 out of 5 for accuracy. (1 vote)Sorry, but you must be logged in to rate this tab.
Click here to log-in, or you can click here to register.
(Registration is free)

All songs owned by corresponding publishing company. If you make copies of any song on this website, be sure to report your usage to CCLI.
Submitted by: Te eF Kay

2 great tabs have already been put on but they still missed some stuff and 
their tabs helped a lot so thanks but I thought this is needed 4 
perfectionists like me!lol!

Artist:TFK
Song:Set It Off

Key:
 or /=slide up or down(the slides in this song are very fast.)
p or h=pull-off or hammer-on
PM....=palm mute
^     =play note softly(this is important in some parts)

Intro:clean
G|----------------------------------|
D|--------------5-3------------------|
A|-0-0----3h5-3-----0-0----3h5-3-0---|2x
D|-0-0-3h5----------0-0-3h5--------3-|
PM . .              . .

Verse:medium distortion
G|-----------------------------------|
D|--------------5-3------------------|
A|-0-0----3h5-3-----0-0----3h553-0---|1x
D|-0-0-3h5----------0-0-3h5--------3-|
PM . .              . .

Verse:full distortion
G|---------------------------------|
D|--------------5-3----------------|
A|-0-0----3h5-3-----0-0----3h5--33-|
D|-0-0-3h5----------0-0-3h5-----33-|
PM . .              . .         .

Verse:
G|--------------------------------------------------------------------|
D|--------------5-3--------------------------------5-3----------------|
A|-0-0----3h5-3-----0-0----3h5-3-0---0-0----3h5-3------0-0---33553333-|2x
D|-0-0-3h5----------0-0-3h5--------3-0-0-3h5-----------0-0-35------33-|
PM                  . ^              . .               . ^ .........

Pre-Chorus:clean
G|-------------------------|  |------------------------|
D|-------------------------|  |------------------------|
A|-0-00-3h5-00-8h10-00-7-6-|3x|-0-00-3h5-00-10-8-6/7-7-|all together 3x
D|-0-00-3h5-00-8h10-00-7-6-|  |-0-00-3h5-00-10-8-6/7-7-|

Chorus:Distortion
G|-------------------------|  |-----------------------------|
D|-------------------------|  |-----------------------------|
A|-0-00-3h5-00-8h10-00-7-6-|3x|-0-00-3h5-00-10/12-87-6/7-7-|all together 1x
D|-0-00-3h5-00-8h10-00-7-6-|  |-0-00-3h5-00-10/12-87-6/7-7-|
 |                         |  |                             |
 |...play this 7x again....|  |.....Then play this once.....|

After that do this:
D|---|
A|-0-|
D|-0-|let it ring

Verse2(same as first verse)

Pre-Chorus

Chorus

Bridge:Clean(the funnest part!!!)
D|----------------------------------------|
A|-2-xx-2/322-xxx-2/32-2-xx2/32-00-0-0-|6x
D|-2-xx-2/322-xxx-2/32-2-xx2/32-00-0-0-|

Then again with distortion!

the outro is just the last part of the verse ending with an open D chord
thats it enjoy!
I hope I didnt make any tabbing mistakes cause I am tired but I will correct 
if I did!

Comments about this tab

Te eF Kay - 2006-09-01

I did make a typing mistake!
on the last part of the pre-chorus you palm-mute like this:
D|----------|
A|-10-8-6-7-|
D|-10-8-6-7-|
PM . . . .


Dani_Boy - 2006-09-08

Last part of pre-chorus/chorus something like this:

|-0-00-3h5-00-10-8\66/7--|
|-0-00-3h5-00-10-8\66/7--|

Intro is not palm muted at all. I don't think so anyway.

Good Job!


Te eF Kay - 2006-09-08

I think the intro is palm muted just very lightly thats all:-)


Dani_Boy - 2006-09-09

Could be.


Te eF Kay - 2006-09-13

um...u forgot to rate.hehe.


Te eF Kay - 2006-10-12

hey guess what this is easy toplay and even easier to rate!
PLEEEEEEEASE RATE!


Te eF Kay - 2006-10-17

this is getting annoying...I DIDN'T TAB THIS FOR NOTHING PEOPLE!!!


akaukal - 2006-12-11

Hmm, is this tab really nescessary? It is missing a little bit from my tab, but really, its no different.


Te eF Kay - 2007-01-01

well it isnt a lot different but I there r a few things that completes it.


Te eF Kay - 2007-01-01

Thanx though;-)


Add a comment/correction

Complimentary Christian Ringtones
Dadamobile and CGR have teamed up to bring your favorite Christian artists right to your phone. Sign up today and get 10 complementary ringtones!
Tab Country
Did you know CGR has a sister site w/ country guitar tabs? Well we do! Its called Tab Country. It has a great archive with a lot of country tabs.
Rockin Tabs
Are you looking for a site that has rock guitar tabs? Then Rockintabs.com is the place for you. It is a budding site with many rock guitar tabs. Submit your tab today.
Tab Gallery
Tab Gallery has a compilation of christian, rock, and country tabs all in one place. Come visit us.