Guitar Tabs
song title    band name

Join Us Today!

Don't strum alone...
be a part of the largest online Christian music community. Browse thousands of guitar tabs and chat w/ musicians like yourself.


It's Free!

This tab has not yet been rated for accuracy.Sorry, but you must be logged in to rate this tab.
Click here to log-in, or you can click here to register.
(Registration is free)

All songs owned by corresponding publishing company. If you make copies of any song on this website, be sure to report your usage to CCLI.
Submitted by: brandsema

This is an awesome tab at it always goes off at youth. I am 99.99% sure that im 
correct but im open to criticism. 

      h - hammer on 
      p - pull off 
      b - bend string up
      r - release bend
      / - slide up
       - slide down
      v - vibrato (sometimes written as ~)
      t - tap (with strumming hand)
      x - muted, struck string

|----------------------14--14--14--14----------------| 
|--14-14--12-12--11-11---12--12--12------------------|  
|----------------------------------------------------|  
|----------------------------------------------------|
|----------------------------------------------------|
                                                         
|----------------------12--12--12--12----------------|
|--14-14--12-12--11-11---12--12--12------------------|
|----------------------------------------------------|   Intro / Verse   
|----------------------------------------------------|
|----------------------------------------------------|

|----------------------------------------------------| 
|--14-14--12-12--11-11----14x-12x-10x-8x-10x-12x-14x-|
|----------------------------------------------------|   
|----------------------------------------------------|
|----------------------------------------------------|

> Please note that the end half of these sections are played
  very quick and i sujest that you use quite a bit of delay.
  Also in the 14x-12x-10x-8x-10x-12x-14x bit i just rest my finger 
  over top of the fret on the string while tremelo picking.

Comments about this tab

No comments/corrections found. Add your own

Complimentary Christian Ringtones
Dadamobile and CGR have teamed up to bring your favorite Christian artists right to your phone. Sign up today and get 10 complementary ringtones!
Tab Country
Did you know CGR has a sister site w/ country guitar tabs? Well we do! Its called Tab Country. It has a great archive with a lot of country tabs.
Rockin Tabs
Are you looking for a site that has rock guitar tabs? Then Rockintabs.com is the place for you. It is a budding site with many rock guitar tabs. Submit your tab today.
Tab Gallery
Tab Gallery has a compilation of christian, rock, and country tabs all in one place. Come visit us.