Guitar Tabs
song title    band name

Join Us Today!

Don't strum alone...
be a part of the largest online Christian music community. Browse thousands of guitar tabs and chat w/ musicians like yourself.


It's Free!

This tab has not yet been rated for accuracy.Sorry, but you must be logged in to rate this tab.
Click here to log-in, or you can click here to register.
(Registration is free)

All songs owned by corresponding publishing company. If you make copies of any song on this website, be sure to report your usage to CCLI.
Submitted by: oh my god

Switchfoot
We Are One Tonight (Live Version)
Nothing Is Sound

Tuning - Standard (E A D G B e)

Guitar 1 - Jon
Guitar 2 - Jerome
Guitar 3 - Drew

Intro
Guitar 3
e|---3---3----------------
B|-----3---3--0--1--------(6x)
G|-----------------2--0---

Guitar 1
e|---3-3-3-3--2-2-2-2--3-3-3-3--3-3-3-3---
B|---3-3-3-3--3-3-3-3--3-3-3-3--3-3-3-3---
G|---0-0-0-0--2-2-2-2--0-0-0-0--0-0-0-0---
D|---0-0-0-0--0-0-0-0--2-2-2-2--2-2-2-2---(2x)
A|---2-2-2-2-----------2-2-2-2--3-3-3-3---
E|---3-3-3-3-----------0-0-0-0------------

Guitar 2
G|------------7-7-7-7--9-9-9-9--5-5-5-5---
D|---5-5-5-5--7-7-7-7--9-9-9-9--5-5-5-5---
A|---5-5-5-5--5-5-5-5--7-7-7-7--3-3-3-3---(2x)
E|---3-3-3-3------------------------------

NOTE: Start playing guitar 1 and 2’s part after guitar 3 plays intro 2 times (2 of the 6x)

Verse 1
Guitar 1
G|---12-12-12-12-12-12-12-12--12-12-12-12-12-12-12-12---
D|---12-12-12-12-12-12-12-12--12-12-12-12-12-12-12-12---
A|---10-10-10-10-10-10-10-10--10-10-10-10-10-10-10-10---(4x)
E|----------------------------10-10-10-10-10-10-10-10---

Guitar 2
Plays keyboard during verse

Guitar 3
e|---0-0-0-0-0-0-0-0--3-3-3-3-3-3-3-3---
B|---3-3-3-3-3-3-3-3--3-3-3-3-3-3-3-3---
G|---0-0-0-0-0-0-0-0--0-0-0-0-0-0-0-0---
D|---2-2-2-2-2-2-2-2--x-x-x-x-x-x-x-x---(4x)
A|---0-0-0-0-0-0-0-0--3-3-3-3-3-3-3-3---
E|--------------------------------------

Note: They play the verse chords with some rhythm…it’s pretty easy to figure out how they do it…just listen to one of the versions of the song.

Pre-Chorus
Guitar 1 and 3
G|---7-7-7-7-7-7-7-7--9-9-9-9-9-9-9-9--5-5-5-5-5-5-5-5---
D|---7-7-7-7-7-7-7-7--9-9-9-9-9-9-9-9--5-5-5-5-5-5-5-5---
A|---5-5-5-5-5-5-5-5--7-7-7-7-7-7-7-7--3-3-3-3-3-3-3-3---(2x)
E|-------------------------------------------------------

Guitar 2
Plays keyboard during pre-chorus

Chorus
Guitar 3
e|---3---3----------------
B|-----3---3--0--1--------(10x)
G|-----------------2--0---

Guitar 1
e|---3-3-3-3--2-2-2-2--3-3-3-3--3-3-3-3---
B|---3-3-3-3--3-3-3-3--3-3-3-3--3-3-3-3---
G|---0-0-0-0--2-2-2-2--0-0-0-0--0-0-0-0---
D|---0-0-0-0--0-0-0-0--2-2-2-2--2-2-2-2---(5x)
A|---2-2-2-2-----------2-2-2-2--3-3-3-3---
E|---3-3-3-3-----------0-0-0-0------------

Guitar 2
G|------------7-7-7-7--9-9-9-9--5-5-5-5---
D|---5-5-5-5--7-7-7-7--9-9-9-9--5-5-5-5---
A|---5-5-5-5--5-5-5-5--7-7-7-7--3-3-3-3---(5x)
E|---3-3-3-3------------------------------

Verse 2
Guitar 1
G|---12-12-12-12-12-12-12-12--12-12-12-12-12-12-12-12---
D|---12-12-12-12-12-12-12-12--12-12-12-12-12-12-12-12---
A|---10-10-10-10-10-10-10-10--10-10-10-10-10-10-10-10---(4x)
E|----------------------------10-10-10-10-10-10-10-10---

Guitar 2
Plays keyboard during verse

Guitar 3
e|---0-0-0-0-0-0-0-0--3-3-3-3-3-3-3-3---
B|---3-3-3-3-3-3-3-3--3-3-3-3-3-3-3-3---
G|---0-0-0-0-0-0-0-0--0-0-0-0-0-0-0-0---
D|---2-2-2-2-2-2-2-2--x-x-x-x-x-x-x-x---(4x)
A|---0-0-0-0-0-0-0-0--3-3-3-3-3-3-3-3---
E|--------------------------------------

Note: They play the verse chords with some rhythm…it’s pretty easy to figure out how they do it…just listen to one of the versions of the song.

Pre-Chorus
Guitar 1 and 3
G|---7-7-7-7-7-7-7-7--9-9-9-9-9-9-9-9--5-5-5-5-5-5-5-5---
D|---7-7-7-7-7-7-7-7--9-9-9-9-9-9-9-9--5-5-5-5-5-5-5-5---
A|---5-5-5-5-5-5-5-5--7-7-7-7-7-7-7-7--3-3-3-3-3-3-3-3---(2x)
E|-------------------------------------------------------

Guitar 2
Plays keyboard during pre-chorus

Chorus
Guitar 3
e|---3---3----------------
B|-----3---3--0--1--------(10x)
G|-----------------2--0---

Guitar 1
e|---3-3-3-3--2-2-2-2--3-3-3-3--3-3-3-3---
B|---3-3-3-3--3-3-3-3--3-3-3-3--3-3-3-3---
G|---0-0-0-0--2-2-2-2--0-0-0-0--0-0-0-0---
D|---0-0-0-0--0-0-0-0--2-2-2-2--2-2-2-2---(5x)
A|---2-2-2-2-----------2-2-2-2--3-3-3-3---
E|---3-3-3-3-----------0-0-0-0------------

Guitar 2
G|------------7-7-7-7--9-9-9-9--5-5-5-5---
D|---5-5-5-5--7-7-7-7--9-9-9-9--5-5-5-5---
A|---5-5-5-5--5-5-5-5--7-7-7-7--3-3-3-3---(5x)
E|---3-3-3-3------------------------------

Pre-Bridge
Guitar 1 and 3
G|---7-7-7-7-7-7-7-7--9-9-9-9-9-9-9-9--5-5-5-5-5-5-5-5---
D|---7-7-7-7-7-7-7-7--9-9-9-9-9-9-9-9--5-5-5-5-5-5-5-5---
A|---5-5-5-5-5-5-5-5--7-7-7-7-7-7-7-7--3-3-3-3-3-3-3-3---(2x)
E|-------------------------------------------------------

Guitar 2
Plays keyboard during pre-bridge

Guitar 1 and 3
e|---3~~~
B|---3~~~
G|---0~~~
D|---2~~~
A|---3~~~
E|-------

Bridge
Guitar 3
e|------------10------
B|---12----12----12---(16x)
G|------12------------

Guitar 1
Doesn’t play anything during bridge

Guitar 2
Plays keyboard during bridge

Post Bridge
Guitar 3
e|------------10------
B|---12----12----12---(8x)
G|------12------------

Guitar 1
e|---3-3-3-3--2-2-2-2--3-3-3-3--3-3-3-3---
B|---3-3-3-3--3-3-3-3--3-3-3-3--3-3-3-3---
G|---0-0-0-0--2-2-2-2--0-0-0-0--0-0-0-0---
D|---0-0-0-0--0-0-0-0--2-2-2-2--2-2-2-2---(2x)
A|---2-2-2-2-----------2-2-2-2--3-3-3-3---
E|---3-3-3-3-----------0-0-0-0------------

Guitar 2
G|------------7-7-7-7--9-9-9-9--5-5-5-5---
D|---5-5-5-5--7-7-7-7--9-9-9-9--5-5-5-5---
A|---5-5-5-5--5-5-5-5--7-7-7-7--3-3-3-3---(2x)
E|---3-3-3-3------------------------------

Chorus
Guitar 1 and 3
e|---3-3-3-3--2-2-2-2--3-3-3-3--3-3-3-3---
B|---3-3-3-3--3-3-3-3--3-3-3-3--3-3-3-3---
G|---0-0-0-0--2-2-2-2--0-0-0-0--0-0-0-0---
D|---0-0-0-0--0-0-0-0--2-2-2-2--2-2-2-2---(5x)
A|---2-2-2-2-----------2-2-2-2--3-3-3-3---
E|---3-3-3-3-----------0-0-0-0------------

Guitar 2
G|------------7-7-7-7--9-9-9-9--5-5-5-5---
D|---5-5-5-5--7-7-7-7--9-9-9-9--5-5-5-5---
A|---5-5-5-5--5-5-5-5--7-7-7-7--3-3-3-3---(5x)
E|---3-3-3-3------------------------------

Outro
Guitar 1 and 3
e|---3-3-3-3--2-2-2-2------------------------------------------
B|---3-3-3-3--3-3-3-3------------------------------------------
G|---0-0-0-0--2-2-2-2--5-5-5-5~-5-5-5-5~-5-5-5-5~-5-5-5-5------
D|---0-0-0-0--0-0-0-0--5-5-5----5-5-5----5-5-5----5-5-5-5--5---
A|---2-2-2-2-----------3-3-3----3-3-3----3-3-3----3-3-3-3--5---
E|---3-3-3-3-----------------------------------------------3---

Guitar 2
G|------------7-7-7-7--5-5-5-5~-5-5-5-5~-5-5-5-5~-5-5-5-5------
D|---5-5-5-5--7-7-7-7--5-5-5----5-5-5----5-5-5----5-5-5-5--5---
A|---5-5-5-5--5-5-5-5--3-3-3----3-3-3----3-3-3----3-3-3-3--5---
E|---3-3-3-3-----------------------------------------------3---

Tim~

Comments about this tab

Oh!Gravity - 2007-04-07

I think the intro/chorus goes:

e|-3---3---3------
B|---3---1---0----
G|-------------2-0


Switchfoot_ - 2007-05-15

Here's my version:


Switchfoot-We Are One Tonight
Album: Nothing Is Sound
Copyright © 2005 Columbia Records


Tuning: It sounds good in half/step down, but that's what I do,
you could have it in standard.

In the song, for the verse, they play these weird forms of Em7 and Cadd9.
Here is the chord chart.


Em7* Em7 Cadd9* D G
E--------3----------2--3
B---8----3-----8----3--3
G---7----0-----7----2--0
D---0----2-----0----0--0
A---7----2-----7----0--2
E---7----0-----8----0--3

Note: You might think the speacial chords for the verse (Em7*, Cadd9*,)are
wrong, but they are what they play (for the verse). If you don't believe
me, see video. and, the chords with the * beside them are the speacial
ones.

I'm sure this is at least 99.9% right, if not 100%.

Intro: G D Em7 Cadd9 x2

Verse: Em7* cadd9* (over and over for entire verse)

Pre-chorus: D Em7 Cadd9 x2

Chorus:G D Em7 Cadd9 x4 (or till the chorus ends)

Intro

Verse 2

Pre-Chorus

Chorus

Post-chorus: G D Em7 Cadd9

Pre-Chorus

Bridge: ("Let's slow the evening down..."
same chords as chorus)

Ending: Keep playing chorus, then fade out


Add a comment/correction

Complimentary Christian Ringtones
Dadamobile and CGR have teamed up to bring your favorite Christian artists right to your phone. Sign up today and get 10 complementary ringtones!
Tab Country
Did you know CGR has a sister site w/ country guitar tabs? Well we do! Its called Tab Country. It has a great archive with a lot of country tabs.
Rockin Tabs
Are you looking for a site that has rock guitar tabs? Then Rockintabs.com is the place for you. It is a budding site with many rock guitar tabs. Submit your tab today.
Tab Gallery
Tab Gallery has a compilation of christian, rock, and country tabs all in one place. Come visit us.