Guitar Tabs
song title    band name

Join Us Today!

Don't strum alone...
be a part of the largest online Christian music community. Browse thousands of guitar tabs and chat w/ musicians like yourself.


It's Free!

This tab has been rated a 3.00 out of 5 for accuracy. (2 votes)Sorry, but you must be logged in to rate this tab.
Click here to log-in, or you can click here to register.
(Registration is free)

All songs owned by corresponding publishing company. If you make copies of any song on this website, be sure to report your usage to CCLI.
Submitted by: oh my god

Jars of Clay
Oh My God
Good Monsters

Standard Tuning (E A D G B e)

Intro
          C          F          C          G
E|-----0-0-0-0----0-0-0-0----0-0-0-0----3-3-3-3---
B|-----2-2-2-2----1-1-1-1----2-2-2-2----3-3-3-3---
G|-----0-0-0-0----2-2-2-2----0-0-0-0----0-0-0-0---
D|-----2-2-2-2----3-3-3-3----2-2-2-2----0-0-0-0---
A|---3-3-3-3-3--0-0-0-0-0--3-3-3-3-3----2-2-2-2---
E|------------------------------------3-3-3-3-3---

C                             F

               C

              G

             C                 F

             C             G  


Interlude 2x
E|-------------------
B|-------------------
G|-------------------
D|-------------------
A|---8-7--3-3-5--3---
E|-------------------

C                           F

             C              

             G

         C               F

               C                                 G




Interlude 
E|---------------------|---------------------
B|---------------------|---------------------
G|---------------------|---------------------
D|-------------------2x|---------------------
A|---8-7--3-3-5--3-----|---8-7--3------------
E|---------------------|---------------------

C                    F

                  C                        G               

C                      F  

           C                   G


No Guitar

           C            G            C            F  
C                  G                  C               F            

C                  G        C              F   
C               G               C              F

C                  G                C            F
C                 G              C           F
C                   G                 C             F 


C

    G

C                               F

C                                    G 


C                                 F  


C                                  G  

C                                F

C                               G  

C                                     F


C                              G   

C                                    F         

C                             G 

C                                  F

C                                  G  

C                                 F

C          G          C      F  


That is it! Comments, corrections...please!

Tim~

Comments about this tab

noway - 2006-09-09

im sure this begins with 'e minor', i think ur interlude part could be wrong too.


~FreT~ - 2006-09-11

Nope, A minor.

For the intro, the chords should be normal chords, especially the F. No fancy thing.

And the interlude is
E|---1--------------------------|
B|---1--------------------------|
G|---2---------------------(x2)-|
D|-3------3-2-------------------|
A|------------------------------|
E|------------3----3-10---------|
and then that guitar goes on to play chords.


~FreT~ - 2006-09-11

And the chord progression in the last part is A min, G maj, C maj, F maj.


Jesusrocker34 - 2006-09-12

I agree with FreT on the Am. although i play this song a little different.
Capo 4
Verse
Am F C G repeat however many times

and then the bridge/interlude thing is:

Am G C F

EADGBe
Am x02210
F x03210
C x32010
G 320003

Tell me what ya think.
Jesusrocker


Jesusrocker34 - 2006-09-13

whoops, never mind the capo 4 i dont know what i was thinkin.


Jars Fan - 2006-11-10

I saw Jars in concert just recently and they played all their songs from the new "Monsters" album. This song was awesome in how they performed it. Listening to the CD and seeing them in concert, they are not using a capo and this is the progression I saw in concert and comparing it to the CD.

e------0--3------0--3------0--0------0--3--
B------2--2------1--1------1--1------1--1--
G------2--2------0--0------0--0------0--0--
D------1--1------2--2------2--2------0--0--
A---0--0--0---3--3--3------3--3------2--2--
E------x--x------x--x---3--3--3---3--3--3--
*** this is played throughout most of the song, however, when he begins the long verse I cannot tell if the chord 320010 is being played. But I do know that Jars does not add in the 3rd fret on the e-string during this span. Let me add that I might not be 100% correct, yet comparing from the concert to what I hear on the CD, I hope it is extremely close. <>< HE LIVES <><


Jars Fan - 2006-11-10

Sorry I forgot to add the tab from guitar 2, so here it is:

e--------------------
B--------------------
G--------------------
D---0--2-------------
A---------3----------
E------------3--3/10-


Jars Fan - 2006-11-10

I typed by accident the wrong notes for guitar 2. Here is the corrections:

e------------------
B------------------
G------------------
D--3--2------------
A--------3---------
E-----------3--3/10


Add a comment/correction

Complimentary Christian Ringtones
Dadamobile and CGR have teamed up to bring your favorite Christian artists right to your phone. Sign up today and get 10 complementary ringtones!
Tab Country
Did you know CGR has a sister site w/ country guitar tabs? Well we do! Its called Tab Country. It has a great archive with a lot of country tabs.
Rockin Tabs
Are you looking for a site that has rock guitar tabs? Then Rockintabs.com is the place for you. It is a budding site with many rock guitar tabs. Submit your tab today.
Tab Gallery
Tab Gallery has a compilation of christian, rock, and country tabs all in one place. Come visit us.