Guitar Tabs
song title    band name

Join Us Today!

Don't strum alone...
be a part of the largest online Christian music community. Browse thousands of guitar tabs and chat w/ musicians like yourself.


It's Free!

This tab has been rated a 4.00 out of 5 for accuracy. (1 vote)Sorry, but you must be logged in to rate this tab.
Click here to log-in, or you can click here to register.
(Registration is free)

All songs owned by corresponding publishing company. If you make copies of any song on this website, be sure to report your usage to CCLI.
Submitted by: guitarprep29

Band:underĜath
Song:Down,Set,Go
Album:Theyre Only Chasing Safety
Name:Eddy Galos
Date:March 16,2005


.=palm mute

x=mute

~=let it ring


     It took me a while to do this song and it really easy to do
     so try it out.




Example
E|----------------------------------|
B|----------------------------------|
G|----------------------------------|
D|----------------------------------|
A|----------------------------------|
D|----------------------------------|



Intro

  Guitar 1
E|------------------------------------------------------------|
B|------------------------------------------------------------|
G|10-10-10-10-10-10--7-7-7-7-7-7-7-7-7-7-7-7--4-4-4-4-4-4-4-4-|
D|-x--x--x--x--x--x--x-x-x-x-x-x-x-x-x-x-x-x--x-x-x-x-x-x-x-x-|X4
A|-9--9--9--9--9--9--5-5-5-5-5-5-5-5-5-5-5-5--2-2-2-2-2-2-2-2-|
D|------------------------------------------------------------|

  Guitar 2
E|-------------------------------------------------------|
B|-------------------------------------------------------|
G|-------------------------------------------------------|
D|-4-4-4-4-4-4--0-0-0-0-0-0-0-0-0-0-0-0--2-2-2-2-2-2-2-2-|X2
A|-4-4-4-4-4-4--0-0-0-0-0-0-0-0-0-0-0-0--2-2-2-2-2-2-2-2-|
D|-4-4-4-4-4-4--0-0-0-0-0-0-0-0-0-0-0-0--2-2-2-2-2-2-2-2-|



Verse
 
  Guitar 1 ("Im a half wited boy")

E|-12-12-12-12-12--9-9-9-9-9-9-9--4-4-4-4-4-4-|
B|-10-10-10-10-10--7-7-7-7-7-7-7--5-5-5-5-5-5-|
G|--------------------------------------------|
D|--------------------------------------------|X4
A|--------------------------------------------|
D|--------------------------------------------|


  Guitar 2
E|-------------------------------------------------------|
B|-------------------------------------------------------|
G|-------------------------------------------------------|
D|-4-4-4-4-4-4--0-0-0-0-0-0-0-0-0-0-0-0--2-2-2-2-2-2-2-2-|X4
A|-4-4-4-4-4-4--0-0-0-0-0-0-0-0-0-0-0-0--2-2-2-2-2-2-2-2-|
D|-4-4-4-4-4-4--0-0-0-0-0-0-0-0-0-0-0-0--2-2-2-2-2-2-2-2-|
   . . . . . .  . . . . . . . . . . . .  . . . . . . . .


  Guitar 1
E|----|
B|----|
G|----|
D|-0~-|
A|-0~-|
D|-0~-|

  Guitar 2
E|---|
B|---|
G|---|
D|-0-|X24
A|-0-|
D|-0-|
   .


Chorus

  Both Guitars
E|----------------------------------------------|
B|----------------------------------------------|
G|----------------------------------------------|
D|-4-4-4-4-4-4-4-4-4-4-4--7-7-7-7-7-7-7-7-7-7-7-|
A|-4-4-4-4-4-4-4-4-4-4-4--7-7-7-7-7-7-7-7-7-7-7-|
D|-4-4-4-4-4-4-4-4-4-4-4--7-7-7-7-7-7-7-7-7-7-7-|

  Coninued
E|----------------------------------------------|
B|----------------------------------------------|
G|----------------------------------------------|
D|-0-0-0-0-0-0-0-0-0-0-0--2-2-2-2-2-2-2-2-2-2-2-|X2
A|-0-0-0-0-0-0-0-0-0-0-0--2-2-2-2-2-2-2-2-2-2-2-|
D|-0-0-0-0-0-0-0-0-0-0-0--2-2-2-2-2-2-2-2-2-2-2-|



Intro

Guitar 1 
E|------------------------------------------------------------|
B|------------------------------------------------------------|
G|10-10-10-10-10-10--7-7-7-7-7-7-7-7-7-7-7-7--4-4-4-4-4-4-4-4-|
D|-x--x--x--x--x--x--x-x-x-x-x-x-x-x-x-x-x-x--x-x-x-x-x-x-x-x-|X3
A|-9--9--9--9--9--9--5-5-5-5-5-5-5-5-5-5-5-5--2-2-2-2-2-2-2-2-|
D|------------------------------------------------------------|

  Guitar 2 (....to the top of the world..)
E|-------------------------------------------------------|
B|-------------------------------------------------------|
G|-------------------------------------------------------|
D|-4-4-4-4-4-4--0-0-0-0-0-0-0-0-0-0-0-0--2-2-2-2-2-2-2-2-|X2
A|-4-4-4-4-4-4--0-0-0-0-0-0-0-0-0-0-0-0--2-2-2-2-2-2-2-2-|
D|-4-4-4-4-4-4--0-0-0-0-0-0-0-0-0-0-0-0--2-2-2-2-2-2-2-2-|




Verse

Guitar 1 (Shes a maveric shes so smooth)

E|-12-12-12-12-12--9-9-9-9-9-9-9--4-4-4-4-4-4-|
B|-10-10-10-10-10--7-7-7-7-7-7-7--5-5-5-5-5-5-|
G|--------------------------------------------|
D|--------------------------------------------|X4
A|--------------------------------------------|
D|--------------------------------------------|


  Guitar 2
E|-------------------------------------------------------|
B|-------------------------------------------------------|
G|-------------------------------------------------------|
D|-4-4-4-4-4-4--0-0-0-0-0-0-0-0-0-0-0-0--2-2-2-2-2-2-2-2-|X4
A|-4-4-4-4-4-4--0-0-0-0-0-0-0-0-0-0-0-0--2-2-2-2-2-2-2-2-|
D|-4-4-4-4-4-4--0-0-0-0-0-0-0-0-0-0-0-0--2-2-2-2-2-2-2-2-|
   . . . . . .  . . . . . . . . . . . .  . . . . . . . .


  Both Guitars
E|----|
B|----|
G|----|
D|-0~-|
A|-0~-|
D|-0~-|




Chorus

  Both Guitars
E|----------------------------------------------|
B|----------------------------------------------|
G|----------------------------------------------|
D|-4-4-4-4-4-4-4-4-4-4-4--7-7-7-7-7-7-7-7-7-7-7-|
A|-4-4-4-4-4-4-4-4-4-4-4--7-7-7-7-7-7-7-7-7-7-7-|
D|-4-4-4-4-4-4-4-4-4-4-4--7-7-7-7-7-7-7-7-7-7-7-|

  Coninued
E|----------------------------------------------|
B|----------------------------------------------|
G|----------------------------------------------|
D|-0-0-0-0-0-0-0-0-0-0-0--2-2-2-2-2-2-2-2-2-2-2-|X2
A|-0-0-0-0-0-0-0-0-0-0-0--2-2-2-2-2-2-2-2-2-2-2-|
D|-0-0-0-0-0-0-0-0-0-0-0--2-2-2-2-2-2-2-2-2-2-2-|




 Both guitars (palm Muted)
   . . . . . .  . . . . . .
E|-5-5-5-5-5-5--4-4-4-4-4-4--|
B|-7-7-7-7-7-7--7-7-7-7-7-7--|
G|---------------------------|
D|---------------------------|X3
A|---------------------------|
D|---------------------------|

  Then do this

E|-5-5-5-5-5-5--4-4-4-4-4-4--|
B|-7-7-7-7-7-7--7-7-7-7-7-7--|
G|---------------------------|
D|---------------------------|
A|---------------------------|
D|---------------------------|



Acoustic Part

  Guitar 1 (4 times)
E|----------------------------------------------------|
B|----------------------------------------------------|
G|11-11-11-x-x-11-11-11-x-x-11-11-11-x-x-11-11-11-x-x-|
D|11-11-11-x-x-11-11-11-x-x-11-11-11-x-x-11-11-11-x-x-|
A|-9--9--9-x-x--9--9--9-x-x--9--9--9-x-x--9--9--9-x-x-|
D|-x--x--x-x-x--x--x--x-x-x--x--x--x-x-x--x--x--x-x-x-|

  Continued
E|-----------------------------------------|
B|-----------------------------------------|
G|-7-7-7-x-x-7-7-7-x-x-4-4-4-x-x-4-4-4-x-x-|
D|-7-7-7-x-x-7-7-7-x-x-4-4-4-x-x-4-4-4-x-x-|
A|-5-5-5-x-x-5-5-5-x-x-2-2-2-x-x-2-2-2-x-x-|
D|-x-x-x-x-x-x-x-x-x-x-x-x-x-x-x-x-x-x-x-x-|


  Guitar 2 (clean guitar)

E|-----9---------9--------7---------|
B|---7---7~----7---7~---7---7~------|
G|-9---------9--------9-------------|
D|----------------------------------|X2
A|----------------------------------|
D|----------------------------------|

  Guitar 2 

E|-4---4-2---2-4---4-2---2----------|
B|---5-----5-----5-----5------------|
G|----------------------------------|
D|----------------------------------|
A|----------------------------------|
D|----------------------------------|


  continued

E|-9---9-7---7-9---9-7---7----------|
B|---7-----7-----7-----7------------|
G|----------------------------------|
D|----------------------------------|
A|----------------------------------|
D|----------------------------------|


  continued

E|-4---4-2---2-4---4-2---2----------|
B|---5-----5-----5-----5------------|
G|----------------------------------|
D|----------------------------------|
A|----------------------------------|
D|----------------------------------|

   Do this part fast 
E|-9---9---9---9---7---7--7---7-----|
B|---7---7---7---7---7--7---7---7---|
G|----------------------------------|
D|----------------------------------|X2
A|----------------------------------|
D|----------------------------------|


 Breakdown

  Guitar 1

E|------------------------------------------------------------------|
B|------------------------------------------------------------------|
G|------------------------------------------------------------------|
D|-4-4-4-4-4-4-4-4-4-4-4-4--0-0-0-0-0-0-0-0-0-0-0--2-2-2-2-2-2-2-2-2|X4
A|-4-4-4-4-4-4-4-4-4-4-4-4--0-0-0-0-0-0-0-0-0-0-0--2-2-2-2-2-2-2-2-2|
D|-4-4-4-4-4-4-4-4-4-4-4-4--0-0-0-0-0-0-0-0-0-0-0--2-2-2-2-2-2-2-2-2|

Guitar 2

E|-9-0-5-0-7-0----------------------|
B|-------------9-0------------------|
G|----------------------------------|
D|----------------------------------|
A|----------------------------------|
D|----------------------------------|


 Guitar 1 End on
E|----|
B|----|
G|----|
D|-4~-|
A|-4~-|
D|-4~-|


 Guitar 2 End on
E|----|
B|-9~-|
G|----|
D|----|
A|----|
D|----|



Their it is enjoy.Questions or comments Emailmeat:underOATH101@hotmail.com

Comments about this tab

Ooblar - 2007-06-01

I think The first part is

G[-11-]
D[-x--]
A[-9--]
D[----]

Hopr that helps!


Ooblar - 2007-06-01

And the part before the ending

E[-9-0-5-0-9-0-7-0-5-0-----]
B[---------------------9-0-]
G[-------------------------]

Hope that helps too!


Add a comment/correction

Complimentary Christian Ringtones
Dadamobile and CGR have teamed up to bring your favorite Christian artists right to your phone. Sign up today and get 10 complementary ringtones!
Tab Country
Did you know CGR has a sister site w/ country guitar tabs? Well we do! Its called Tab Country. It has a great archive with a lot of country tabs.
Rockin Tabs
Are you looking for a site that has rock guitar tabs? Then Rockintabs.com is the place for you. It is a budding site with many rock guitar tabs. Submit your tab today.
Tab Gallery
Tab Gallery has a compilation of christian, rock, and country tabs all in one place. Come visit us.