Guitar Tabs
song title    band name

Join Us Today!

Don't strum alone...
be a part of the largest online Christian music community. Browse thousands of guitar tabs and chat w/ musicians like yourself.


It's Free!

This tab has not yet been rated for accuracy.Sorry, but you must be logged in to rate this tab.
Click here to log-in, or you can click here to register.
(Registration is free)

All songs owned by corresponding publishing company. If you make copies of any song on this website, be sure to report your usage to CCLI.
Submitted by: guitarprep29

Underoath
CASTING SUCH A THIN SHADOW
DEFINE THE GREAT LINE
tabbed by U B the band
tuning D A D G B E

/-slide up
-slide down
*-harmonics
|x#-play riff number amount
(x#)-play the note number amount
x-scratch
pm-palm mute


Intro(keyboard): 00:00
E)------------------------------|
B)------------------------------|
G)------------------------------|
D)------------------------------|
A)--5-8-7----5-8-7------5-3--0--|
D)--------------------3---------|

Guitar 1: 00:16
E)------------------------------------------------------|
B)-------------------------------------------------3----|
G)--9/10-9-7/9-7-----9/10-9-7/9-7------------------2----|
D)---------------7----------------7---------------------|
A)------------------------------------3/10---105-------|
D)------------------------------------------------------|

guitar 2: 00:16
E)------------------------------------------------------|
B)------------------------------------------------------|
G)-----------12---------------12----------10-9-----5-4--|
D)----3/10-------------3/10-----------------------------|
A)--5----------------5----------------3/10----105------|
D)------------------------------------------------------|

guitar 1: 00:33
E)-------------------------------------------------------|
B)---------------------------------8------------------3--|
G)--9/10-9-7/9-7-----9/10-9-7/9-7---------------------2--|
D)---------------7----------------7----------------------|
A)------------------------------------3/10----105-------|
D)-------------------------------------------------------|

guitar 2: 00:33
E)--------------------------------------------------------------|
B)--------------------------------------------------------------|
G)-----------12--------------------10-9----5-4----4-5-5--4-5-5--|
D)----3/10-------------3/10-------------------------------------|
A)--5-----------------------------------------------------------|
D)--------------------------------------------------------------|

guitar 1: 00:50
E)------------------------------------------------------|
B)-------------------------------------------------3----|
G)--9/10-9-7/9-7-----9/10-9-7/9-7------------------2----|
D)---------------7----------------7---------------------|
A)------------------------------------3/10---105-------|
D)------------------------------------------------------|

guitar 2: 00:50
E)------------------------------------------------------|
B)------------------------------------------------------|
G)-----------12---------------12----------10-9-----5-4--|
D)----3/10-------------3/10-----------------------------|
A)--5----------------5----------------3/10----105------|
D)------------------------------------------------------|

guitar 1: 01:06
E)-------------------------------------------------------|
B)----------------------------------------------------3--|
G)--9/10-9-7/9-7-----9/10-9-7/9-7---------------------2--|
D)---------------7----------------7----------------------|
A)-------------------------------------3/10----105------|
D)-------------------------------------------------------|

guitar 2: 01:06
E)-------------------------------------------------------------|
B)-------------------------------------------------------------|
G)-----------12--------------------10-9-----5-4----4-5-5--4-5--|
D)----3/10-------------3/10------------------------------------|
A)--5----------------------------------------------------------|
D)-------------------------------------------------------------|

guitar 2: 01:23
E)-------------------------------------------------------|
B)-------------------------------------------------------|
G)-----------------77-55---------------------------------|
D)--7----------------------------------------------------|
A)-----000000000000-----00000-7-5-7-5-7-5-7-5------------|
D)---------------------------5-5-5-5-5-5-5-5---3(x7)--0--|

guitar 1: 01:32
E)---------------------------------------12*---------------|
B)----13---12----------13---12---13---12---12*----13---12--|
G)--9----9-----------9----9----9----9-----------9----9-----|
D)---------------------------------------------------------|
A)---------------------------------------------------------|
D)---------------------------------------------------------|

guitar 1: 01:57
E)----------------------12*---------------|
B)----13---12---13---12---12*----13---12--|
G)--9----9----9----9-----------9----9-----|
D)----------------------------------------|
A)----------------------------------------|
D)----------------------------------------|

E)------------12*----|
B)----13---12---12*--|
G)--9----9-----------|
D)-------------------|
A)-------------------|
D)-------------------|x3

guitar 2: 01:40
E)-----------------------------------|
B)-----------------------------------|
G)----------77-55--------------------|
D)-----------------------------------|
A)--0(x16)---------------------------|
D)-----------------5(x16)--3(x7)--0--|x3

guitar 1: 02:30
E)-----------------------------------------------------------|
B)---5-5-5-5-5-5-5-5--6--6--6--6--6--6--6--6--5-5-5-5-5-5-5--|
G)--7-7-7-7-7-7-7-7--7--7--7--7--7--7--7--7--7---7---7---7---|
D)-----------------------------------------------------------|
A)-----------------------------------------------------------|
D)-----------------------------------------------------------|

guitar 1 continued:
E)-----------------------------------|
B)---6--6--6--6--6--6--6--6--5(x14)--|
G)--7--7--7--7--7--7--7--7---7-------|
D)-----------------------------------|
A)-----------------------------------|
D)-----------------------------------|

guitar 2: 02:30 palm muted
E)------------------------------------|
B)------------------------------------|
G)------------------------------------|
D)----------------7(x8)-9(x4)-10(x4)--|
A)--0(x16)-3(x16)-7-----7-----7-------|
D)--0------3------7-----7-----7-------|

guitar 2 continued: palm muted
E)-------------------------------------------|
B)-------------------------------------------|
G)-----------------------------------7(x16)--|
D)----------------7(x8)-9(x4)-10(x4)-5-------|
A)--5(x16)-3(x16)-7-----7-----7------5-------|
D)--5------3------7-----7-----7------5-------|

guitar 1: 02:58 listen cd to hear how many times to play each note
E)-------------------------------------------|
B)--5/17----15----13----12----10----8--8/10--|
G)-------------------------------------------|
D)-------------------------------------------|
A)-------------------------------------------|
D)-------------------------------------------|

guitar 2: 02:59
E)-----------------------------------|
B)-----------------------------------|
G)-----------------------------------|
D)--7(x32)-5(x16)-----------------3--|
A)--7------5-------3-7-3---0-3-5-3---|
D)--7------5-------3-----0-----------|x2

guitar 2 contiued:
E)-----|
B)-----|
G)-----|
D)--7--|
A)--7--|
D)--7--|

guitar 1: 03:33
E)-------------------------------------|
B)-------------------------------------|
G)-------------------------------------|
D)------------0-----------0------------|
A)--------0-----0-------0---0----------|
D)--0-3/7---7-----0-3/7-------0-3-3-3--|x1

E)---------------------------------------|
B)---------------------------------------|
G)---------------------------------------|
D)--------0-----0-----------0------------|
A)----------0-----0-------0---0----------|
D)--0-3/7-----7-----0-3/7-------0-3-3-3--|x3

guitar 1/keyboard: 03:49
E)--------------------------------------------------------|
B)--10(x16)-10(x16)-10(x32)-10(x16)-10(x32)-10(x16)-------|
G)--14------12------9-------14------12------9-------------|
D)--------------------------------------------------------|
A)--------------------------------------------------xxxx--|
D)--------------------------------------------------xxxx--|

guitar 2: 03:49
E)-----------------------|
B)-----------------------|
G)-----------------------|
D)-----------------------|
A)--777733/7777773333--|
D)--777733/7777773333--|x7

guitar 2: 04:14
E)-----------------------|
B)-----------------------|
G)-----------------------|
D)-----------------------|
A)--777733/7777773333--|
D)--777733/7777773333--|
                   pmpm

guitar 2: 04:23
E)------------------------------------------|
B)------------------------------------------|
G)------------------------------------------|
D)--7(x16)-9(x16)-5(x16)-----------------3--|
A)--7------7------5-------3-7-3---0-3-5-3---|
D)--7------7------5-------3-----0-----------|x2

guitar 2: 04:56
E)-------------------------|
B)-------------------------|
G)-------------------------|
D)-------------------------|
A)--3/777733/7777773333--|
D)--3/777733/7777773333--|

E)-----------------------|
B)-----------------------|
G)-----------------------|
D)-----------------------|
A)--777733/7777773333--|
D)--777733/7777773333--|x7

guitar 1: plays when guitar 2 starts 5th time 05:13 listen to cd
E)---------------------|
B)--18---17---13---15--|
G)---------------------|
D)---------------------|
A)---------------------|
D)---------------------|

guitar 1: 05:29
E)------|
B)--18--|
G)------|
D)------|
A)------|
D)------|

guitar 2: 05:29
E)-----|
B)-----|
G)-----|
D)--0--|
A)--0--|
D)--0--|

outro(keyboard): 05:29
E)------------------------------|
B)------------------------------|
G)------------------------------|
D)------------------------------|
A)--5-8-7----5-8-7------5-3--0--|
D)--------------------3---------|x2

Comments about this tab

U B the band - 2006-10-18

Guitar 1: 00:16
E)------------------------------------------------------|
B)-------------------------------------------------3----|
G)--9/10-9-7/9-7-----9/10-9-7/9-7------------------2----|
D)---------------7----------------7---------------------|
A)------------------------------------3/10---10\5-------|
D)------------------------------------------------------|

guitar 2: 00:16
E)------------------------------------------------------|
B)------------------------------------------------------|
G)-----------12---------------12----------10-9-----5-4--|
D)----3/10-------------3/10-----------------------------|
A)--5----------------5----------------3/10----10\5------|
D)------------------------------------------------------|


U B the band - 2006-10-19

Okay for everyone that looks at this tab, this is my tab but "guitarprep29" submitted it without my permission. Well at least he left my name on it. Guitarprep29 this part is for you next time you think about trying to submit something think back to this and ask yourself if I wanted to submit it myself. Just don't post anything without that person permission. -U B the band


U B the band - 2006-10-19

So don't give him credit for my hard work. -U B the band


Add a comment/correction

Complimentary Christian Ringtones
Dadamobile and CGR have teamed up to bring your favorite Christian artists right to your phone. Sign up today and get 10 complementary ringtones!
Tab Country
Did you know CGR has a sister site w/ country guitar tabs? Well we do! Its called Tab Country. It has a great archive with a lot of country tabs.
Rockin Tabs
Are you looking for a site that has rock guitar tabs? Then Rockintabs.com is the place for you. It is a budding site with many rock guitar tabs. Submit your tab today.
Tab Gallery
Tab Gallery has a compilation of christian, rock, and country tabs all in one place. Come visit us.