Guitar Tabs
song title    band name

Join Us Today!

Don't strum alone...
be a part of the largest online Christian music community. Browse thousands of guitar tabs and chat w/ musicians like yourself.


It's Free!

This tab has not yet been rated for accuracy.Sorry, but you must be logged in to rate this tab.
Click here to log-in, or you can click here to register.
(Registration is free)

All songs owned by corresponding publishing company. If you make copies of any song on this website, be sure to report your usage to CCLI.
Submitted by: guitarprep29

Band-As Cities Burn
Song-One:Twentyseven
Website-www.Ascitiesburn.com

 

                         Tuning-Drop D(Dadgbe)
Intro
Guitar 1 (0:00-0:27)
E------------------------------------------------------------------------|
B------------------------------------------------------------------------|
G---------------------(full)--------------------------------------(x2)---|
D--0--------------0----14b----10/12-------------14-----------------------|
A--0--------------0-------------------10/12--15----15---12-10/8----------|
D--0--------------0------------------------------------------------------|

The third time is
E------------------------------------------------------------------------|
B--------------------------------------------------------13-13-10--------|
G---------------------(full)----------------14-14------------------12----|
D--0--------------0----14b----10/12----------------14-15-----------------|
A--0--------------0-------------------12-13------------------------------|
D--0--------------0------------------------------------------------------|

Then repeat the first part one more time


Verse 1
Guitar 1 (0:31)                                (0:57)
E-------------|-------------------------------|------------|
B-------------|-10---11-----------------------|------------|
G-------------|----10---10h12h14----2/7--(x8)-|------------|
D--77-7--88-8-|-------------------------------|-77-7--88-8-|
A--77-7--88-8-|-------------------------------|-77-7--88-8-|
D--77-7--88-8-|-------------------------------|-77-7--88-8-|
   ..    ..                                     ..    ..

Verse 1
Guitar 2
E----------------|----------------13-----------------------|
B----------------|-10---11--10h11-------------------13p10--|
G--99-9--1010-10-|----10-------------10h12h14-12-10--------|
D--xx-x--x-x--x--|-----------------------------------------|
A--77-7--8-8--8--|-----------------------------------------|
D----------------|-----------------------------------------|
   ..    . .                            
(0:57)
E----------------|
B----------------|
G--99-9--1010-10-|
D--xx-x--x-x--x--|
A--77-7--8-8--8--|
D----------------|
   ..    . .

Loop 1
Guitar 1 (1:00)
E------------------------------------------------------------------------|
B------------------------------------------------------------------------|
G--14bp10p9----99-9--1010-10------14bp10p9-----14bp10p9--99-9--1010-10---|
D--------------77-7--8-8--8----0------------00-----------77-7--8-8--8----|
A--------------77-7--8-8--8----0------------00-----------77-7--8-8--8----|
D--------------77-7--8-8--8----0------------00-----------77-7--8-8--8----|
               ..    . .                    ..           ..    . .

Loop 1
Guitar 2      (1:00)
E------------------------------------------------------------------------|
B----------------------------------------------14b ----------------------|
G--------------99-9--1010-10------14bp10p9-----14bfull---99-9--1010-10---|
D--------------77-7--8-8--8----0------------00-----------77-7--8-8--8----|
A--------------77-7--8-8--8----0------------00-----------77-7--8-8--8----|
D--------------77-7--8-8--8----0------------00-----------77-7--8-8--8----|
               ..    . .                    ..           ..    . .

Chorus
Guitar 1 (1:28)
E--------|
B--------|
G---10---|
D---X----|
A---8----|
d---8----|

Chorus 
guitar 1 and 2
E----------------------|
B----------------------|
G--10--10--------------|Those are the chords
D--x---x----1--3-5-----|you can figure out 
A--8---8----1--3-5-----|how to strum em :)
D------8----1--3-5-----|

Ending verse intro
Guitar 1 (1:57)
E---15----------------|
B---------------------|
G-------15--14--------|
D---------------12----|
A---------------------|
D---------------------|


Ending verse
Guitar 2 
E---------|
B---------|Its a very simple riff
G---------|Once again, you can figure
D--8---0--|out the struming :)
A--8---0--|
D--8---0--|


Ending verse
Guitar 1 (2:16)
E---------------------|
B---------------------|
G--14--15--17--19b----|
D--x---x---x---x------|
A--12--13--15--17-----|
D---------------------|

Ending verse cont.
Guitar 1  (2:30)                (2:41)
E-------------------------------|--12h13b----|
B-10---11-----------------------|------------|
G----10---10h12h14----2/7--(x8)-|------------|
D-------------------------------|------------|
A-------------------------------|------------|
D-------------------------------|------------|
                                     

Ending verse cont.
Guitar 2 (2:30)
E----------------13-----------------------|
B-10---11--10h11-------------------13p10--|
G----10-------------10h12h14-12-10--------|
D-----------------------------------------|
A-----------------------------------------|
D-----------------------------------------|


The Most fun part :)
Guitar 1 (2:43)
E-------------------------------------------------|
B-------------------------------------------------|
G------------------------------------------(x8)---|
D----14b--10/12----------14-----------------------|
A---------------10/12--15---15---12-10/8----------|
D-------------------------------------------------|

The most fun part
Guitar 2 (2:43)
E---------|
B---------|
G---------|
D--8---0--|
A--8---0--|
D--8---0--|

         Then repeat intro and there ya go. please rate nicely :)

Slide up   /
slide down \
hammer on  h
pull off   p
bend       b
palm mute  .........
mute note  X

Comments about this tab

No comments/corrections found. Add your own

Complimentary Christian Ringtones
Dadamobile and CGR have teamed up to bring your favorite Christian artists right to your phone. Sign up today and get 10 complementary ringtones!
Tab Country
Did you know CGR has a sister site w/ country guitar tabs? Well we do! Its called Tab Country. It has a great archive with a lot of country tabs.
Rockin Tabs
Are you looking for a site that has rock guitar tabs? Then Rockintabs.com is the place for you. It is a budding site with many rock guitar tabs. Submit your tab today.
Tab Gallery
Tab Gallery has a compilation of christian, rock, and country tabs all in one place. Come visit us.