Guitar Tabs
song title    band name

Join Us Today!

Don't strum alone...
be a part of the largest online Christian music community. Browse thousands of guitar tabs and chat w/ musicians like yourself.


It's Free!

Audio Adrenaline - This Day

This tab has been rated a 4.50 out of 5 for accuracy. (4 votes)Sorry, but you must be logged in to rate this tab.
Click here to log-in, or you can click here to register.
(Registration is free)

All songs owned by corresponding publishing company. If you make copies of any song on this website, be sure to report your usage to CCLI.
This Day
Audio Adrenaline
Words Music by Mark Stuart, Will McGinniss, Bob Herdman, and Tyler Burkum
Copyright 1999 Up In The Mix Music
tabbed by Bryan Rankin

Intro
C       F       G
C-----Am        F       C

Verse 1
C
It's six A.M.
Am
I'm so tired
Em
The alarm sounds
F           G
A new day begins
C
Before I go
Am
And disturb this peaceful moment 
Em         G
I look to You

Chorus
C               F
I want to say a prayer 
G         C--------*-------Am
Before my feet can hit the ground 
            F           G
Lord I give this day to You

Verse 2
I'm amazed
How you forgive me
Yesterday seems so far behind
It's a brand new day
And every day's a new beginning
I look to You

Bridge
C
Breathe in 
Am
Breathe out
        G
Breathe in
    C         Am    G
And watch the day begin
(G)
I wanna watch the day begin



TAB

Intro
          riff*
     /------------\
|----0-------------------0-------------------0--------------------|
|------1-3p1-3p1-----------1-3p1-3p1-----------1-3p1-3p1----------|
|----------------0-------------------0-------------------0--------|
|-----------------------------------------------------------------|
|3----------------------------------------------------------------|
|--------------------1-------------------3------------------------|

|----0-------------------0-------------------0---------------0----|
|------1-3p1-3p1-----------1-3p1-3p1-----------1-3p1-3p1-----1----|
|----------------0-------------------0-------------------0---0----|
|------------------------------------------------------------2----|
|3-------------------0---------------------------------------3----|
|----------------------------------------1------------------------|

Note: 
C------*-----Am is just a normal finger picking run from C to Am minor

  C          Am
A|3-----2----0-|

the riff is played also during the verses with the verse but it sounds good without
it if there is only one guitarist.

if there are any questions, comments, corrections or other song requests email me 
at: bmr322@hotmail.com and I'll see what I can do.

Comments about this tab

onesided_mirror - 2005-05-18

Intro
riff*
/------------\
|----0-------------------0-------------------0--------------------|
|------1-3h5p3p1-----------1-3h5p3p1-----------1-3h5p3p1----------|
|----------------0-------------------0-------------------0--------|
|-----------------------------------------------------------------|
|3----------------------------------------------------------------|
|--------------------1-------------------3------------------------|

|----0-------------------0-------------------0---------------0----|
|------1-3h5p3p1-----------1-3h5p3p1-----------1-3h5p3p1-----1----|
|----------------0-------------------0-------------------0---0----|
|------------------------------------------------------------2----|
|3-------------------0---------------------------------------3----|
|----------------------------------------1------------------------|

other than the wrong note in the intro, this is an awesome tab... High Five for you


YankBoy19888 - 2006-04-29

The last chord in the chores is a C not a G. I'm pretty sure of that. Other than that and the little mess up on the tab, good job.


Add a comment/correction

Complimentary Christian Ringtones
Dadamobile and CGR have teamed up to bring your favorite Christian artists right to your phone. Sign up today and get 10 complementary ringtones!
Tab Country
Did you know CGR has a sister site w/ country guitar tabs? Well we do! Its called Tab Country. It has a great archive with a lot of country tabs.
Rockin Tabs
Are you looking for a site that has rock guitar tabs? Then Rockintabs.com is the place for you. It is a budding site with many rock guitar tabs. Submit your tab today.
Tab Gallery
Tab Gallery has a compilation of christian, rock, and country tabs all in one place. Come visit us.